Staind - Fade Chords & Tabs

 

Fade Chords & Tabs

Staind Chords & Tabs

Version: 3 Type: Tab 0 ratings
1 star 2 stars 3 stars 4 stars 5 stars
comments

Fade Tab

Hi , I tryed searching this song but I saw nobody had it. I only founf the base part so I figuered it out my self. If u have any questions email me at Blockhead4life@aol.com. Enjoy!!!

Tittle: Fade
Artist: Stained
~~~~~~~~~~~~~~~~~~~~~~~~~~~~~~~~~~~~~~~~~~~~~~~~~~~~~~~~~~~~~~~~~~

Intro/verse:
[ Tab from: http://www.guitartabs.cc/tabs/s/staind/fade_tab_ver_3.html ]
E/ ----------------------------------------------------------------------------
B/-----------------------------------------------------------------------------
G/-----------------------------------------------------------------------------
D/-----------------------------------------------------------------------------
A/----6---6---6---6---6---6--6---6---4 --------------------------------------
E/-------------------------------------------6--6--6---6--6---6--6--6--4-----


Chorus:

E/    -----  2 ---------------  2 ----- ----2------
B/    -----  2 -------  --------2 ----- ----2------
G /   -----  2 ------- -------- 4 ------- --6------
D/    ----- 4 -------   --------4 --- ------6------
A/    ----- 4 -------   --------2 ----- ----4------
E/     ----- 2 -------  --------X ---------X -----
Comments