Staind - Fade Chords & Tabs

 

Fade Chords & Tabs

Staind Chords & Tabs

Version: 2 Type: Tab 0 ratings
1 star 2 stars 3 stars 4 stars 5 stars
comments

Fade Tab

   




Here is the complete guitar tab to Staind's "Fade"

THe guitars are tuned in STD tuning, down a half step and one is a 
Baritone

THe Bass is tuned to DROP D, also, one half step down

/  = slide up
\  = slide down
h  = hammer on
p  = pull off
[ Tab from: http://www.guitartabs.cc/tabs/s/staind/fade_tab_ver_2.html ]
INTRO:
Guitar 1
-----------------------------------------------------------------------
--0--------------------------------------0-----------------------------
--0--------------------------------------0-----------------------------
--2--with volume swell-------------------2-----------------------------
--2--------------------------------------2-----------------------------
--0--------------------------------------0-----------------------------
______________________________________________________________________
Guitar 2 comes in with this:
-----------------------------------------------------------------------
-----------------------------------------------------------------------
-----------------------------------------------------------------------
-----------------------------------------------------------------------
-5--7----7--7--7----7--7---5----5--3--5-------5-h-7----7--7--7--7--7--7
-5--7----7--7--5----5--5---5----5--3--5---5---5-h-7----7--7--5--5--5--5
______________________________________________________________________
Guitar 2 (cont'd)
------------------------|----------------------------------------------
------------------------|----------------------------------------------
------------------------|----------------------------------------------
------------------------|----------------------------------------------
-5----5--3--5-----------|----------------------------------------------
-5----5--3--5----5------|----------------------------------------------
                        repeat 1X
______________________________________________________________________
Guitar 3 (w/dist.)
----------------------------------------------------------------------
----------------------------------------------------------------------
--11/-12---12---12/-14---14---14\-12--12\-11---11\-9--9--11--11--11/--
----------------------------------------------------------------------
---9/-10---10---10/-12---12---12\-10--10\--9----9\-7--7---9---9---9/--
----------------------------------------------------------------------
_______________________________________________________________________
guitar 3 (cont'd)
----------------------------------------------------------------------
----------------------------------------------------------------------
/12---12--12/-14--14--14--14\-12--12/-16--16\-14--14\-11--11/-12--12--
----------------------------------------------------------------------
/10---10--10/-12--12--12--12\-10--10/-14--14\-12--12\--9---9/-10--10--
----------------------------------------------------------------------
______________________________________________________________________
Guitar 3 (cont'd)
----------------------------------------------------------------------
----------------------------------------------------------------------
-12/-14--14--14\-12--12\-11--11\-9--9--11--11--11/-12--12--12/-14--14-
----------------------------------------------------------------------
-10/-12--12--12\-10--10\--9---9\-7--7---9---9---9/-10--10--10/-12--12-
----------------------------------------------------------------------
______________________________________________________________________
Guitar 3 (cont'd)
----------------------------------------------------------------------
----------------------------------------------------------------------
-14\-12--12\-11--11\-9--9/-11-----------------------------------------
----------------------------------------------------------------------
-12\-10--10\--9---9\-7--7/--9-----------------------------------------
----------------------------------------------------------------------
______________________________________________________________________
VERSE:
THe chord under the verses is and is played by one guitar
------------
----0-------
----0-------
----2-------
----2-------
----0-------
there are a bunch of little fills in the verses 
here there are:
------------
------------
----12------
------------
----10------
------------
then, 
------------
------------
----5-------   THis is done with a pitch shifting effect
------------     which actually produces a pitch of G and is
------------     played 4X
------------
then,
------------
------------
----12-n.h.-
------------
------------
------------
______________________________________________________________________
PRE CHORUS:
     "I only know that i can change. . . . "
---------------------------------------------|------------------------
---------------------------------------------|------------------------
---------------------------------------------|------------------------
-------------------------------0-------------|------------------------
------------2-------0----0--------2/-5--0/-5-|------------------------
-0--0----0-------0----------2----------------|------------------------
                                             Repeat 2X
end the prechorus with this:
----------------------------------------------------------------------
----------------------------------------------------------------------
----------------------------------------------------------------------
----------------------------------------------------------------------
------------2-------0----0--0--0--0--0--0-----------------------------
-0--0----0-------0-------0--0--0--0--0--0-----------------------------
______________________________________________________________________
CHORUS:
the chorus has two guitars in it
Guitar 1: (Repeat 1X)
----------------------------------------------------------------------
----------------------------------------------------------------------
----------------------------------------------------------------------
--4-h-5--5--5--4-h-5--5--4-h-5--5--5--4-h-5--5--7-p-5--5--5--7-p-5--5-
----------------------------------------------------------------------
----------------------------------------------------------------------
______________________________________________________________________
Guitar 1 (cont'd)
---------------------------|-------------------------------------------
---------------------------|-------------------------------------------
---------------------------|-------------------------------------------
-7----7----5--5--5--5--5---|--------------------------------------------------
---------------------------|-------------------------------------------
---------------------------|-------------------------------------------
______________________________________________________________________
At the end of the second chorus
Guitar 1 ends with:
--------------------------------------------------------------
--------------------------------------------------------------
--------------------------------------------------------------
-7-p-5--5--5--7-p-5--5--7----7----5-\-4----4------------------
--------------------------------------------------------------
--------------------------------------------------------------
______________________________________________________________________
During the chorus Guitar 2 Plays: (Repeat 1X)
---------------------------------------------0----0----0----0--------
------------3---------------------3--3--3----1----1----1----1---3----
-2---2------2-------4-------------2--2--2----0------------------0----
-0---0------0-------0-----0---0---0----------3------------------0----
-X----------X-------X-----X---X---X----------3------------------2----
-3------3---3----3--3-----3-------3----------1-----------------------
______________________________________________________________________
Guitar 2 (cont'd)
--------------------------------------------------------------------
--3--3--3--3--3---------------3--------------------3--3--3----1---1-
--0--0--0--0--0----2---2------2-------4------------2--2--2----0---0-
-------------------0---0------0-------0-----0---0--0----------3-----
-------------------X----------X-------X-----X---X--X----------3-----
-------------------3-------3--3----3--3-----3------3----------1-----
______________________________________________________________________
Guitar 2 (cont'd)                 repeat from this point
---------------------------------|-------------------------------------
-1---1----3---3--3--3--3---------|-------------------------------------
-0---0----2---2--2--2--2---------|-------------------------------------
----------0------------------X---|-------------------------------------
----------X------------------X---|-------------------------------------
----------2------------------X---|-------------------------------------
______________________________________________________________________
Guitar 2 ends the second chorus with:
-------------------------------------------------------
-1---1--1--1--3-----------------------0---------0------
-0---0--0--0--2-----------------------0---------0------
-3------------0-----------------------2---------2------
-3------------X-----------------------2---------2------
-1------------2-----------------------0---------0------
______________________________________________________________________
BRIDGE:
Guitar 1 (Repeat 1X)
----------------------------------------------------------------------
----------------------------------------------------------------------
--5--5---5--7---7--4------4--4--4--4----5--5---5--7---7--4----4---4--4
----------------------------------------------------------------------
----------------------------------------------------------------------
----------------------------------------------------------------------
______________________________________________________________________
Guitar 2 
----------------------------------------------------------------------
-----------3------3-----3--3---------------------------3------3----3--
----0--0---0------2-----2--2--------------------0--0---0------2----2--
----2--2/--0---0--0-----------0--0--------------2--2/--0------0-------
-2--2------X---0--0-----------0--0--4--------2--2------X---0--0-------
-0--0------3---X-----------------------0--0--0--0------3---0----------
______________________________________________________________________
Guitar 2 (Cont'd)
---------------------------------------------------------------------
----------------------------------3--------3-------------------------
----------------------------------0--------2-------------------------
-------0---0---------------2---2/-0----0---0----------0--0-----------
-------0---0---4--------2--2---2/-X----0---0----------0--0--4--------
-0--0-------------0--0--0--0------3----X-------0---0-----------0--0--
______________________________________________________________________
Guitar 2 (cont'd)
----------------------------------------------------------------------
------------3-------3-------------------------------------------------
------------0-------2-------------------------------------------------
----2---2/--0-------0---0--0----0--0--0-------------------------------
-2--2---2/--X---0---0---0--0----0--0--0-------------------------------
-0--0-------3---0------------------------0----------------------------

And that's the entire song.  you have to listen to the CD for the 
Placement of all the riffs but they should all be here somewhere.
I have lots of other songs tabbed out.  Email me with what you are
looking for at MOSFET205@aol.com  OR  PHIL@ICE9ROCKS.COM
Comments