Staind - Fade Chords & Tabs

 

Fade Chords & Tabs

Staind Chords & Tabs

Version: 9 Type: Bass Tab 0 ratings
1 star 2 stars 3 stars 4 stars 5 stars
comments

Fade Bass Tab

Fade - Staind

By: Jon Craven (i_apathy@hotmail.com)
For questions, comments, feedback, an outline of the timing, write the above
address.

(4/4)(58 bpm)
5-string in standard tuning

. - 16th rest
* - note held for 8th beat
. (above note) - staccato note
(#) - note held from previous riff

Intro:
|----------------|----------------|----------------|----------------|
|----------------|----------------|----------------|----------------|
|66.666.666.4*-*-|----------------|66.666.666.4*-*-|----------------|
|----------------|----------------|----------------|----------------|
|----------------|44.444.444.2*-*-|----------------|44.444.444.2*-*-|

|----------------|----------------|----------------|----------------|
|----------------|----------------|----------------|----------------|
|----------------|----------------|----------------|----------------|
|---------2222---|---------2222---|---------2222---|---------2222---|
|24-442222----2-2|24-442222----2-2|24-442222----2-2|24-442222----2-2|

Verse (fill): (x2)(0:33)
|----------------|----------------|
|----------------|----------------|
|66.666.666.4*-*-|----------------|
|----------------|----------------|
|----------------|44.444.444.2*-*-|
[ Tab from: http://www.guitartabs.cc/tabs/s/staind/fade_btab_ver_9.html ]
Pre-chorus: (x4)(0:49)
|----------------|
|----------------|
|----------------|
|----------------|
|44.444.444.2*-*-|

Chorus: (1:06)
|----------------|-----------------|----------------|----------------|
|----------------|-----------------|----------------|----------------|
|----------------|----------------.|----------------|----------------|
|2--22--2-22-2-2-|0--00-0/6-664-444|2--22--2-22-2-2-|0--00-0---------|
|------2------2-2|-----------------|------2------2-2|-------2-22-2222|

|----------------|-----------------|----------------|----------------|
|----------------|-----------------|----------------|----------------|
|----------------|----------------.|----------------|----------------|
|2--22--2-22-2-2-|0--00-0/6-664-444|2--22--2-22-2-2-|0--00-01--444-44|
|------2------2-2|-----------------|------2------2-2|----------------|

Fill
Verse (x2)
Pre-chorus (x4)
Chorus

Bridge: (2:53)
|-----------------|-----------------|-----------------|----------------|
|-----------------|-----------------|-----------------|----------------|
|-----------------|-----------------|-----------------|----------------|
|----0-0----------|----0-0----------|----0-0----------|----0-0---------|
|44-4---2-*-2-2222|44-4---2-*-2-2222|44-4---2-*-2-2222|44-4---2-2222-22|

Chorus
Verse (x2)

Outro: (3:58)
|-----------------|
|-----------------|
|-----------------|
|-----------------|
|(2)*-*-*-*-*-*-*-|

Rest till end
Comments