Staind - Fade Chords & Tabs

 

Fade Chords & Tabs

Staind Chords & Tabs

Version: 5 Type: Bass Tab 0 ratings
1 star 2 stars 3 stars 4 stars 5 stars
comments

Fade Bass Tab

   
                               Staind
                               "Fade"
               Transcribed and tabbed by: Jordy Smith
                          C#,A,D,G Tuning


      Intro/Verse/Outro
G----------------------------
D----------------------------
A--66-666-666-4--------------
C#--------------22-222-222-0-


Part between intro and verse
G---------------------
D---------------------
A--46-6-64-44---------
C#------------2-220-0-

[ Tab from: http://www.guitartabs.cc/tabs/s/staind/fade_btab_ver_5.html ]
                      Chorus
G---------------------------------------------
D-------4------4----4--------2----------------
A------------------------------------4----4---
C#-5-55---55-5---55---5-3-33---3-0-0---00---0-


 Part after 2nd Chorus
G---------------------
D---------------------
A--46-64-6------------
C#---------2-2-0-0000-


I think that's right but I could be wrong. The notes on the A and D
string in the chorus are just like highlighting notes. If you have 
any questions, comments, or corrections, e-mail me at:
                   bass_kid_2000@yahoo.com
Comments