Staind - Fade Chords & Tabs

 

Fade Chords & Tabs

Staind Chords & Tabs

Version: 3 Type: Bass Tab 0 ratings
1 star 2 stars 3 stars 4 stars 5 stars
comments

Fade Bass Tab

Tuning: DADG

   Intro
   
   G--------------------------------
   D-22-222-222-0-------------------   
   A--------------------------------   2x
   D----------------22-222-222-0----

   G--------------------------------
   D--------------------------------
   A-------------------------------- 4x
   D-0-2--2-2-0-0-0-0-5-5-5-5-0--0--

   1st part of verse is the same as the intro for the second part play this
 
   G--------------------------------
   D--------------------------------
   A-------------------------------- 4x
   D-22-222-222-0-------------------
[ Tab from: http://www.guitartabs.cc/tabs/s/staind/fade_btab_ver_3.html ]
   Chorus
 
   G------------------------------------------------------
   D------------------------------------------------------
   A------------------------------------------------------
   D-5--5-5--0-5-5-5--5-0-5-0--3--3-3--3\9-9-9-7-7-7-7----

   G------------------------------------------------------
   D------------------------------------------------------
   A------------------------------------------------------
   D-5--5-5--0-5-5-5--5-0-5-0--3--3-3-0-0--0-0-0-0--------
 
   Bridge
 
   G-------------------------------
   D-------------------------------
   A-------------------------------
   D-2-2--2-5--5-0-0--0-0-0-0------
Comments