Staind - Fade Chords & Tabs

 

Fade Chords & Tabs

Staind Chords & Tabs

Version: 1 Type: Bass Tab 0 ratings
1 star 2 stars 3 stars 4 stars 5 stars
comments

Fade Bass Tab

www.tabseek.com
Band: Staind
Song: Fade
CD: Break the Cycle
Tabbed by: jhurley12
Tuning: Db-A-D-G (tune the E-string down 1 and 1/2 steps)

Intro / Verse:
G/-----|-----------------------------------------------------------|
D/-----|-----------------------------------------------------------|
A/-3h5-|--3-3---3-3-3---3-3-3--1-----------------------------------|
Db/----|-------------------------------6-6----6-6-6---6-6-6---4----|

[ Tab from: http://www.guitartabs.cc/tabs/s/staind/fade_btab.html ]
Chorus:
G/---------------------------------------------------------------------|
D/---------------------------------------------------------------------|
A/---5--5--5--5--5----5--------------6--6--6--6------3--3--3--3---3----|
Db/--------------------------------------------------------------------|

Bridge:
G/-------------------------|
D/-------------------------|
A/--3h5--3--1----1--1------|
Db/------------------------|

Then repeat as many times as needed,and that's it and if there is any problems or comments
 about this tab e-mail me at jjs_ELEMENT@hotmail.com Thank you , enjoy the tab.
Comments