Staind - Excess Baggage Chords & Tabs

 

Excess Baggage Chords & Tabs

Staind Chords & Tabs

Version: 7 Type: Tab 0 ratings
1 star 2 stars 3 stars 4 stars 5 stars
comments

Excess Baggage Tab

Written By: Christopher Safouri
Tuning: 1/2 a step down
Email Adress: F8WillBeDecided@bellsouth.net

Alright Ive been looking at tabs, playing the Guitar, and listening to the song at the
same time but it just doesnt seem to fit in well so I wrote what I believe how the song
goes. Im sorry if im wrong but Ive listened the song a countless number of times and
played the Guitar to match the notes and this seems to work. If im wrong I apologize of
my mistakes but before you jump to conclusions just did what i did and then youll see
what Im talking about


Part 1
eb|-----------------|---------------|---------------|
Bb|-----------------|---------------|---------------|
Gb|---------------0-|---------------|-----0---------|  Play twice
Db|-----------4-----|-4-------------|-4-------4-----|
Ab|-------2---------|-----2-------2-|-------------2-|
Eb|---0-------------|---------0-----|---------------|

Part 2
eb|-----------------|---------------|---------------|
Bb|-----------------|---------------|---------------|
Gb|---------------0-|---------------|-----0---------|  Play twice
Db|-----------4-----|-4-------------|-4-------4-----|
Ab|-------2---------|-----2-------2-|-------------2-|
Eb|---3-------------|---------3-----|---------------|

Part 1
eb|-----------------|---------------|---------------|
Bb|-----------------|---------------|---------------|
Gb|---------------0-|---------------|-----0---------|  Play twice
Db|-----------4-----|-4-------------|-4-------4-----|
Ab|-------2---------|-----2-------2-|-------------2-|
Eb|---0-------------|---------0-----|---------------|

Part 2
eb|-----------------|---------------|---------------|
Bb|-----------------|---------------|---------------|
Gb|---------------0-|---------------|-----0---------|  Play twice
Db|-----------4-----|-4-------------|-4-------4-----|
Ab|-------2---------|-----2-------2-|-------------2-|
Eb|---3-------------|---------3-----|---------------|

Part 1
eb|-----------------|---------------|---------------|
Bb|-----------------|---------------|---------------|
Gb|---------------0-|---------------|-----0---------|  Play twice
Db|-----------4-----|-4-------------|-4-------4-----|
Ab|-------2---------|-----2-------2-|-------------2-|
Eb|---0-------------|---------0-----|---------------|

Part 2
eb|-----------------|---------------|---------------|
Bb|-----------------|---------------|---------------|
Gb|---------------0-|---------------|-----0---------|  Play twice
Db|-----------4-----|-4-------------|-4-------4-----|
Ab|-------2---------|-----2-------2-|-------------2-|
Eb|---3-------------|---------3-----|---------------|

Part 1
eb|-----------------|---------------|---------------|
Bb|-----------------|---------------|---------------|
Gb|---------------0-|---------------|-----0---------|  Play twice
Db|-----------4-----|-4-------------|-4-------4-----|
Ab|-------2---------|-----2-------2-|-------------2-|
Eb|---0-------------|---------0-----|---------------|

Part 2
eb|-----------------|---------------|---------------|
Bb|-----------------|---------------|---------------|
Gb|---------------0-|---------------|-----0---------|  Play twice
Db|-----------4-----|-4-------------|-4-------4-----|
Ab|-------2---------|-----2-------2-|-------------2-|
Eb|---3-------------|---------3-----|---------------|

Part 1
eb|-----------------|---------------|---------------|
Bb|-----------------|---------------|---------------|
Gb|---------------0-|---------------|-----0---------|  Play twice
Db|-----------4-----|-4-------------|-4-------4-----|
Ab|-------2---------|-----2-------2-|-------------2-|
Eb|---0-------------|---------0-----|---------------|

Part 2
eb|-----------------|---------------|---------------|
Bb|-----------------|---------------|---------------|
Gb|---------------0-|---------------|-----0---------|  Play twice
Db|-----------4-----|-4-------------|-4-------4-----|
Ab|-------2---------|-----2-------2-|-------------2-|
Eb|---3-------------|---------3-----|---------------|

eb|-----------------|---------------|---------------|
Bb|---------------0-|---------------|-----0---------|
Gb|-----------2-----|-2-------------|-2-------2-----| Continue to 
Db|-------2---------|-----2-------2-|-------------2-| next part
Ab|---0-------------|---------0-----|---------------|
Eb|-----------------|---------------|---------------|

eb|-----------------|---------------|---------------|
Bb|---------------0-|---------------|-----0---------|
Gb|-----------0-----|-0-------------|-0-------0-----|
Db|-------2---------|-----2-------2-|-------------2-|
Ab|---3-------------|---------3-----|---------------|
Eb|-----------------|---------------|---------------|

eb|-----------------|---------------|---------------|
Bb|---------------0-|---------------|-----0---------|
Gb|-----------2-----|-2-------------|-2-------2-----| Continue to 
Db|-------2---------|-----2-------2-|-------------2-| next part
Ab|---0-------------|---------0-----|---------------|
Eb|-----------------|---------------|---------------|
[ Tab from: http://www.guitartabs.cc/tabs/s/staind/excess_baggage_tab_ver_7.html ]
eb|-----------------|---------------|---------------|
Bb|---------------0-|---------------|-----0---------|
Gb|-----------0-----|-0-------------|-0-------0-----|
Db|-------2---------|-----2-------2-|-------------2-|Pause..
Ab|---3-------------|---------3-----|---------------|
Eb|-----------------|---------------|---------------|

Part 1
eb|-----------------|---------------|---------------|
Bb|-----------------|---------------|---------------|
Gb|---------------0-|---------------|-----0---------|  Play twice
Db|-----------4-----|-4-------------|-4-------4-----|
Ab|-------2---------|-----2-------2-|-------------2-|
Eb|---0-------------|---------0-----|---------------|

Part 2
eb|-----------------|---------------|---------------|
Bb|-----------------|---------------|---------------|
Gb|---------------0-|---------------|-----0---------|  Play twice
Db|-----------4-----|-4-------------|-4-------4-----|
Ab|-------2---------|-----2-------2-|-------------2-|
Eb|---3-------------|---------3-----|---------------|

Part 1
eb|-----------------|---------------|---------------|
Bb|-----------------|---------------|---------------|
Gb|---------------0-|---------------|-----0---------|  Play twice
Db|-----------4-----|-4-------------|-4-------4-----|
Ab|-------2---------|-----2-------2-|-------------2-|
Eb|---0-------------|---------0-----|---------------|

Part 2
eb|-----------------|---------------|---------------|
Bb|-----------------|---------------|---------------|
Gb|---------------0-|---------------|-----0---------|  Play twice
Db|-----------4-----|-4-------------|-4-------4-----|
Ab|-------2---------|-----2-------2-|-------------2-|
Eb|---3-------------|---------3-----|---------------|

Part 1
eb|-----------------|---------------|---------------|
Bb|-----------------|---------------|---------------|
Gb|---------------0-|---------------|-----0---------|  Play twice
Db|-----------4-----|-4-------------|-4-------4-----|
Ab|-------2---------|-----2-------2-|-------------2-|
Eb|---0-------------|---------0-----|---------------|

Part 2
eb|-----------------|---------------|---------------|
Bb|-----------------|---------------|---------------|
Gb|---------------0-|---------------|-----0---------|  Play twice
Db|-----------4-----|-4-------------|-4-------4-----|
Ab|-------2---------|-----2-------2-|-------------2-|
Eb|---3-------------|---------3-----|---------------|

Part 1
eb|-----------------|---------------|---------------|
Bb|-----------------|---------------|---------------|
Gb|---------------0-|---------------|-----0---------|  Play twice
Db|-----------4-----|-4-------------|-4-------4-----|
Ab|-------2---------|-----2-------2-|-------------2-|
Eb|---0-------------|---------0-----|---------------|

Part 2
eb|-----------------|---------------|---------------|
Bb|-----------------|---------------|---------------|
Gb|---------------0-|---------------|-----0---------|  Play twice
Db|-----------4-----|-4-------------|-4-------4-----|
Ab|-------2---------|-----2-------2-|-------------2-|
Eb|---3-------------|---------3-----|---------------|

Chorus 
eb|-----------------|---------------|---------------|
Bb|---------------0-|---------------|-----0---------|
Gb|-----------2-----|-2-------------|-2-------2-----| Continue to 
Db|-------2---------|-----2-------2-|-------------2-| next part
Ab|---0-------------|---------0-----|---------------|
Eb|-----------------|---------------|---------------|

eb|-----------------|---------------|---------------|
Bb|---------------0-|---------------|-----0---------|
Gb|-----------0-----|-0-------------|-0-------0-----|
Db|-------2---------|-----2-------2-|-------------2-|
Ab|---3-------------|---------3-----|---------------|
Eb|-----------------|---------------|---------------|

Chorus 
eb|-----------------|---------------|---------------|
Bb|---------------0-|---------------|-----0---------|
Gb|-----------2-----|-2-------------|-2-------2-----| Continue to 
Db|-------2---------|-----2-------2-|-------------2-| next part
Ab|---0-------------|---------0-----|---------------|
Eb|-----------------|---------------|---------------|

eb|-----------------|---------------|---------------|
Bb|---------------0-|---------------|-----0---------|
Gb|-----------0-----|-0-------------|-0-------0-----|
Db|-------2---------|-----2-------2-|-------------2-|
Ab|---3-------------|---------3-----|---------------|
Eb|-----------------|---------------|---------------|
                                    Play slowly
Part 1
eb|-----------------|---------------|---------------|
Bb|-----------------|---------------|---------------|
Gb|---------------0-|---------------|-----0---------|  
Db|-----------4-----|-4-------------|-4-------4-----|
Ab|-------2---------|-----2-------2-|-------------2-|
Eb|---0-------------|---------0-----|---------------|

eb|-----------------|-----------|
Bb|-----------------|-----------|
Gb|---------------0-|-----------|
Db|-----------4-----|-4---------|
Ab|-------2---------|-----2-----|
Eb|---0-------------|---------0-|
                    Play Slowly

                                 Finished
Comments