Staind - Excess Baggage Chords & Tabs

 

Excess Baggage Chords & Tabs

Staind Chords & Tabs

Version: 4 Type: Tab 0 ratings
1 star 2 stars 3 stars 4 stars 5 stars
comments

Excess Baggage Tab

Staind
 exces baggage.
 Tabbed by josh babyjosh666@yahoo,com.
  
E--0----------------------
A----2-------2------------
D------4---4--------------
G--------0----------------
X4
E--3-----------------------
A----2-------2-------------
D------4---4---------------
G--------0----------------
X4
REPEAT ABOVE ONCE
E--0----------------------
A----2-------2------------
D------4---4--------------
G--------0----------------
X2
E--3-----------------------
A----2-------2-------------
D------4---4---------------
G--------0----------------
X2
REPEAT ALL
AND THATS IT!

 
:: Ultimate Guitar Archive :: 
http://www.ultimate-guitar.com 




[ Tab from: http://www.guitartabs.cc/tabs/s/staind/excess_baggage_tab_ver_4.html ]
Comments