Staind - Excess Baggage Chords & Tabs

 

Excess Baggage Chords & Tabs

Staind Chords & Tabs

Version: 2 Type: Tab 0 ratings
1 star 2 stars 3 stars 4 stars 5 stars
comments

Excess Baggage Tab

name: Brian Calcaterra

artist: Staind

SongTitle: Excess Baggage

Tabs:  
 Its an Acoustic song, Hidden song off of "Dysfunction" by Staind. 
Standard tuning
  Extremely Easy but it sounds cool.


  E----------------------}
  B----------------------}
  G------------0---------}
  D---------4-----4------}   Intro 1: 3x
  A------2-----------2---}   (Outro)
  E---0------------------}

[ Tab from: http://www.guitartabs.cc/tabs/s/staind/excess_baggage_tab_ver_2.html ]
  E----------------------}
  B----------------------}
  G------------0---------}   Intro 2: 3x
  D---------4-----4------}   (Outro)
  A------2-----------2---}
  E---3------------------}

     "Its not easy to hide...."
  E----------------------}-------------------------}
  B------------0---------}---------------0---------}
  G---------2-----2------}(2x) -------0-----0------}  Verse:
  D------2-----------2---}---------2-----------2---}
  A---0------------------}------3------------------}
  E----------------------}-------------------------}

  Thats it, Easiest song to ever learn. Listen to the song for the 
correct timing.
Comments