Staind - Excess Baggage Chords & Tabs

 

Excess Baggage Chords & Tabs

Staind Chords & Tabs

Version: 1 Type: Tab 2 ratings
1 star 2 stars 3 stars 4 stars 5 stars
comments

Excess Baggage Tab

Staind - Excess Baggage (Tabbed by Daz@musician.net)

This track is perhaps one of the easiest I know of in terms of ease of play. The entire song is based around 2 simple arpeggios. Enjoy :o)

Intro:

      |-----------------------------------------------------------------------------------------|
      |-----------------------------------------------------------------------------------------|
      |------------0-------------------0-----------------0-----------------0-----------------0--|
      |--------4------4-------------4-----4-----------4-----4-----------4-----4-----------4-----|
      |-----2-------------2------2-----------2-----2-----------2-----2-----------2-----2--------|
      |--0-------------------0------------------0-----------------0-----------------3-----------|
[ Tab from: http://www.guitartabs.cc/tabs/s/staind/excess_baggage_tab.html ]
      |-------------------------------------------------------------|
      |-------------------------------------------------------------|
      |-----------------0-----------------0-----------------0-------| Repeat For The Duration Of
      |--4-----------4-----4-----------4-----4-----------4-----4----| The Verses
      |-----2-----2-----------2-----2-----------2-----2-----------2-|
      |--------3-----------------3-----------------3----------------|

Chorus:

      |-----------------------------------------------------------------------------------------|
      |----------0-----------------0-----------------0-----------------0-----------------0------|
      |-------2-----2-----------2-----2-----------0-----0-----------0-----0-----------2-----2---|
      |----2-----------2-----2-----------2-----2-----------2-----2-----------2-----2-----------2|
      |-0-----------------0-----------------3-----------------3-----------------0---------------|
      |-----------------------------------------------------------------------------------------|

      |--------------------------------------|
      |----------0-----------------0---------|
      |-------2-----2-----------0-----0------|
      |----2-----------2-----2-----------2---|
      |-0-----------------3----------------3-|Let ring...
      |--------------------------------------|

That's it! Nothing to it (Daz@musician.net)
Comments