Staind - Everything Changes Chords & Tabs

 

Everything Changes Chords & Tabs

Staind Chords & Tabs

Version: 6 Type: Tab

Everything Changes Tab

   
---------------------------
Staind - Everything Changes
---------------------------

tabbed by : tuluks


ye just updated this and added few missing stoffs...

jst be changin wot you thinkin is of wrong.
i hoped you will enjoying this very much...
cheers.


Tuning  : standard (half step down)
Guitar 1: Acoustic
Guitar 2: Electric

Note: Acoustic guitar strummin chords over electric guitar picking during da verses.


(Chords Used)
      E        Asus       C#m      Asus       Bsus
e|----0---------0----------0----------0---------0-----|
B|----0---------0----------0----------0---------0-----|
G|----1---------2----------6----------2---------4-----|
D|----2---------2----------6----------2---------4-----|
A|----2---------0----------4----------0---------2-----|
E|----0-----------------------------------------------|


Verse 1:
-------


(Acoustic Guitar)
            E
If you just walked away
             Asus
What could I really say?
                C#m
would it matter anyway?
                        Asus
would it change how you feel?


(Electric Guitar - Clean)
               E
e|----------4--5h7-----------|-----------7--------------7--------------|
B|-------5----------5--------|-----5--------5--------------5-----------|
G|----4----------------4-----|--4-----4--------4-----4--------4-----4--|
D|------------------------6--|--------------------6--------------6-----|
A|---------------------------|-----------------------------------------|
E|---------------------------|-----------------------------------------|
      I am the mess       you            chose      the closet    you

               Asus
e|-------------4h5-----------|-----------5--------------5--------------|
B|------------------5--------|-----5--------5--------------5-----------|
G|---------------------4-----|--4-----4--------4-----4--------4-----4--|
D|------------------------7--|--------------------7--------------7-----|
A|---------------------------|-----------------------------------------|
E|---------------------------|-----------------------------------------|
               can    -   not            close      the devil in you

               C#m
e|-------------2/4-----------|-----------4--------------4--------------|
B|------------------5--------|-----5--------5--------------5-----------|
G|---------------------4-----|--4-----4--------4-----4--------4-----4--|
D|------------------------6--|--------------------6--------------6-----|
A|---------------------------|-----------------------------------------|
E|---------------------------|-----------------------------------------|
               I  suppose                       coz the wounds never

               Asus                                 Asus
e|-------------4h5--4-----4h5--4-----4h5--4-----|---0--0--0---|
B|---------------------5----------5----------5--|---0--0--0---|
G|----------------------------------------------|---2--2--2---|
D|----------------------------------------------|---2--2--2---|
A|----------------------------------------------|---0--0--0---|
E-----------------------------------------------|-------------|
               heal..........

Chorus:
------

(Electric Guitar - w/distortion)
       E                                            Asus
e|-----0--0--0--0--0--------0--0--0--0--0--------|--0--0--0--0---0----------0--0--0--0---0---0--0---|
B|-----0--0--0--0-----0-----0--0--0--0-----0-----|--0--0--0--0-------0------0--0--0--0---0---0--0---|
G|-----1--1--1--1--------1--1--1--1--1--------1--|--2--2--2--2-----------2--2--2--2--2---2---0--0---|
D|-----2--2--2--2-----------2--2--2--2-----------|--2--2--2--2--------------2--2--2--2---2---0--0---|
A|-----2--2--2--2-----------2--2--2--2-----------|--0--0--0--0--------------0--0--0--0---0---0--0---|
E|-----0--0--0--0-----------0--0--0--0-----------|--------------------------------------------------|
              But everything changes if I could                Turn back the years if you could

     C#m                                                    Asus
e|----4---4--4--4----------------4--4--4--4---------------|--0--0--0--0---0--0--0---|
B|----4h5-5--5--5--4h5--4-----4--5--5--5--5--4h5--5-------|--0--0--0--0---0--0--0---|
G|----6---6--6--6----------6-----6--6--6--6----------6----|--2--2--2--2---2--2--2---|
D|----6---6--6--6----------------6--6--6--6------------6--|--2--2--2--2---2--2--2---|
A|----4---4--4--4----------------4--4--4--4---------------|--0--0--0--0---0--0--0---|
E|--------------------------------------------------------|-------------------------|
                 Learn to forgive me   then I could          learn   to   feel     

Verse 2:
-------

(Electric Guitar - Clean)
               E
e|-------------5h7-----------|-----------7--------------7--------------|
B|------------------5--------|-----5--------5--------------5-----------|
G|---------------------4-----|--4-----4--------4-----4--------4-----4--|
D|------------------------6--|--------------------6--------------6-----|
A|---------------------------|-----------------------------------------|
E|---------------------------|-----------------------------------------|
 sometimes the things     I             say         in moments   of

               Asus
e|-------------4h5-----------|-----------5--------------5--------------|
B|------------------5--------|-----5--------5--------------5-----------|
G|---------------------4-----|--4-----4--------4-----4--------4-----4--|
D|------------------------7--|--------------------7--------------7-----|
A|---------------------------|-----------------------------------------|
E|---------------------------|-----------------------------------------|
               dis   -   ar      -      ray         succumbing to the

               C#m
e|-------------2/4-----------|-----------4--------------4--------------|
B|------------------5--------|-----5--------5--------------5-----------|
G|---------------------4-----|--4-----4--------4-----4--------4-----4--|
D|------------------------6--|--------------------6--------------6-----|
A|---------------------------|-----------------------------------------|
E|---------------------------|-----------------------------------------|
               games we play                   to make sure that its

               Asus                                 Asus
e|-------------4h5--4-----4h5--4-----4h5--4-----|---0--0--0---|
B|---------------------5----------5----------5--|---0--0--0---|
G|----------------------------------------------|---2--2--2---|
D|----------------------------------------------|---2--2--2---|
A|----------------------------------------------|---0--0--0---|
E-----------------------------------------------|-------------|
               real.............

Chorus:
------

(Electric Guitar - w/distortion)
       E                                            Asus
e|-----0--0--0--0--0--------0--0--0--0--0--------|--0--0--0--0---0----------0--0--0--0---0---0--0---|
B|-----0--0--0--0-----0-----0--0--0--0-----0-----|--0--0--0--0-------0------0--0--0--0---0---0--0---|
G|-----1--1--1--1--------1--1--1--1--1--------1--|--2--2--2--2-----------2--2--2--2--2---2---0--0---|
D|-----2--2--2--2-----------2--2--2--2-----------|--2--2--2--2--------------2--2--2--2---2---0--0---|
A|-----2--2--2--2-----------2--2--2--2-----------|--0--0--0--0--------------0--0--0--0---0---0--0---|
E|-----0--0--0--0-----------0--0--0--0-----------|--------------------------------------------------|
              But everything changes if I could                Turn back the years if you could

     C#m                                                    Asus
e|----4---4--4--4----------------4--4--4--4---------------|--0--0--0--0---0--0--0---|
B|----4h5-5--5--5--4h5--4-----4--5--5--5--5--4h5--5-------|--0--0--0--0---0--0--0---|
G|----6---6--6--6----------6-----6--6--6--6----------6----|--2--2--2--2---2--2--2---|
D|----6---6--6--6----------------6--6--6--6------------6--|--2--2--2--2---2--2--2---|
A|----4---4--4--4----------------4--4--4--4---------------|--0--0--0--0---0--0--0---|
E|--------------------------------------------------------|-------------------------|
                 Learn to forgive me   then I could          learn   to   feel    

[ Tab from: http://www.guitartabs.cc/tabs/s/staind/everything_changes_tab_ver_6.html ]
Solo:
-----
       C#m            Asus                 E                          Bsus
e|-------------------------------------|-------------------------------------|
B|-----7/9---7b9b7--5--4--4--4h5-------|--12/14--12--10--9--10--10h12--7-\---|
G|--------------------------------6-/--|-------------------------------------|
D|-------------------------------------|-------------------------------------|
A|-------------------------------------|-------------------------------------|
E|-------------------------------------|-------------------------------------|

               C#m                        Asus                             E
e|-------------------------------------|--11/12--11--9--12/14--12--11--14/16~~--|
B|----/7--9b10b9---9--9--9--9--10--12--|----------------------------------------|
G|-------------------------------------|----------------------------------------|
D|-------------------------------------|----------------------------------------|
A|-------------------------------------|----------------------------------------|
E|-------------------------------------|----------------------------------------|

                    Bsus                       Asus
e|----14/16\14--12--11b12b11-------------------------------|
B|---------------------------12b1412-----------------------|
G|-------------------------------------11*-----9-\-8-\-6---|
D|----------------------------------------11*--------------|
A|---------------------------------------------------------|
E|---------------------------------------------------------|
                                       pm  pm

Verse 3/interlude:
-----------------

               E
e|-------------5h7-----------|-----------7--------------7--------------|
B|------------------5--------|-----5--------5--------------5-----------|
G|---------------------4-----|--4-----4--------4-----4--------4-----4--|
D|------------------------6--|--------------------6--------------6-----|
A|---------------------------|-----------------------------------------|
E|---------------------------|-----------------------------------------|
  when its just me        and            you           who knows what

               Asus
e|-------------4h5-----------|-----------5--------------5--------------|
B|------------------5--------|-----5--------5--------------5-----------|
G|---------------------4-----|--4-----4--------4-----4--------4-----4--|
D|------------------------7--|--------------------7--------------7-----|
A|---------------------------|-----------------------------------------|
E|---------------------------|-----------------------------------------|
               we        could           do          if we could just

               C#m
e|-------------2/4-----------|-----------4--------------4--------------|
B|------------------5--------|-----5--------5--------------5-----------|
G|---------------------4-----|--4-----4--------4-----4--------4-----4--|
D|------------------------6--|--------------------6--------------6-----|
A|---------------------------|-----------------------------------------|
E|---------------------------|-----------------------------------------|
               make it through                thru this part of the

               Asus
e|-------------4h5--4-----4h5--4-----4h5--------|---11--12----|
B|---------------------5----------5-------------|-------------|
G|----------------------------------------------|---8---9-----|
D|----------------------------------------------|-------------|
A|----------------------------------------------|(piano part) |
E-----------------------------------------------|-------------|
               day.............


Chorus:
------

(Electric Guitar - w/distortion)
       E                                            Asus
e|-----0--0--0--0--0--------0--0--0--0--0--------|--0--0--0--0---0----------0--0--0--0---0---0--0---|
B|-----0--0--0--0-----0-----0--0--0--0-----0-----|--0--0--0--0-------0------0--0--0--0---0---0--0---|
G|-----1--1--1--1--------1--1--1--1--1--------1--|--2--2--2--2-----------2--2--2--2--2---2---0--0---|
D|-----2--2--2--2-----------2--2--2--2-----------|--2--2--2--2--------------2--2--2--2---2---0--0---|
A|-----2--2--2--2-----------2--2--2--2-----------|--0--0--0--0--------------0--0--0--0---0---0--0---|
E|-----0--0--0--0-----------0--0--0--0-----------|--------------------------------------------------|
              But everything changes if I could                Turn back the years if you could

     C#m                                                    Asus
e|----4---4--4--4----------------4--4--4--4---------------|--0--0--0--0---0--0--0---|
B|----4h5-5--5--5--4h5--4-----4--5--5--5--5--4h5--5-------|--0--0--0--0---0--0--0---|
G|----6---6--6--6----------6-----6--6--6--6----------6----|--2--2--2--2---2--2--2---|
D|----6---6--6--6----------------6--6--6--6------------6--|--2--2--2--2---2--2--2---|
A|----4---4--4--4----------------4--4--4--4---------------|--0--0--0--0---0--0--0---|
E|--------------------------------------------------------|-------------------------|
                 Learn to forgive me   then I could     learn how to feel if we could

       E                                            Asus
e|-----0--0--0--0--0--------0--0--0--0--0--------|--0--0--0--0---0----------0--0--0--0---0---0--0---|
B|-----0--0--0--0-----0-----0--0--0--0-----0-----|--0--0--0--0-------0------0--0--0--0---0---0--0---|
G|-----1--1--1--1--------1--1--1--1--1--------1--|--2--2--2--2-----------2--2--2--2--2---2---0--0---|
D|-----2--2--2--2-----------2--2--2--2-----------|--2--2--2--2--------------2--2--2--2---2---0--0---|
A|-----2--2--2--2-----------2--2--2--2-----------|--0--0--0--0--------------0--0--0--0---0---0--0---|
E|-----0--0--0--0-----------0--0--0--0-----------|--------------------------------------------------|
                 stay here together and we could                 conquer the world      if we could

     C#m                                                    Asus
e|----4---4--4--4----------------4--4--4--4---------------|--0--0--0--0---0--0--0---|
B|----4h5-5--5--5--4h5--4-----4--5--5--5--5--4h5--5-------|--0--0--0--0---0--0--0---|
G|----6---6--6--6----------6-----6--6--6--6----------6----|--2--2--2--2---2--2--2---|
D|----6---6--6--6----------------6--6--6--6------------6--|--2--2--2--2---2--2--2---|
A|----4---4--4--4----------------4--4--4--4---------------|--0--0--0--0---0--0--0---|
E|--------------------------------------------------------|-------------------------|
                  say that forever      is more than    just        a word


Outro:
-----

(Electric Guitar - Clean)
               E
e|-------------5h7-----------|-----------7--------------7--------------|
B|------------------5--------|-----5--------5--------------5-----------|
G|---------------------4-----|--4-----4--------4-----4--------4-----4--|
D|------------------------6--|--------------------6--------------6-----|
A|---------------------------|-----------------------------------------|
E|---------------------------|-----------------------------------------|
   if you just walked     a      -      way            what could I

               Asus
e|-------------4h5-----------|-----------5--------------5--------------|
B|------------------5--------|-----5--------5--------------5-----------|
G|---------------------4-----|--4-----4--------4-----4--------4-----4--|
D|------------------------7--|--------------------7--------------7-----|
A|---------------------------|-----------------------------------------|
E|---------------------------|-----------------------------------------|
               real   -   ly             say        and would it matter

               C#m
e|-------------2/4-----------|-----------4--------------4--------------|
B|------------------5--------|-----5--------5--------------5-----------|
G|---------------------4-----|--4-----4--------4-----4--------4-----4--|
D|------------------------6--|--------------------6--------------6-----|
A|---------------------------|-----------------------------------------|
E|---------------------------|-----------------------------------------|
               anyway                       it wouldnt change how you

               Asus
e|-------------4h5-----------|
B|---------------------------|
G|---------------------------|
D|---------------------------|
A|---------------------------|
E----------------------------|
              feel.


thats it..

kid©2006™


legend
------

| *  palm mute
| /  slide up
| \  slide down
| h  hammer-on
| p  pull-off
| ~  vibrato
| b  bend
=======================================================================