Staind - Everything Changes Chords & Tabs

 

Everything Changes Chords & Tabs

Staind Chords & Tabs

Version: 3 Type: Tab 0 ratings
1 star 2 stars 3 stars 4 stars 5 stars
comments

Everything Changes Tab

   
Staind - Everything Changes

Another tab from the amazon.com stream...
Fairly simple song, but amazing none-the-less.
Enjoy.

Tuning: Eb Ab Db Gb Bb Eb


Verse/Chorus

Acoustic:

Eb--1---1---1---1---|
Bb--1---1---3---1---|
Gb--2---3---2---3---|
Db--3---3---0---3---|
Ab--3---1-------1---|
Eb--1---------------|

Solo
[ Tab from: http://www.guitartabs.cc/tabs/s/staind/everything_changes_tab_ver_3.html ]
Eb--------------------------------------------------------------------------------------------------|
Bb--10--10-------------------------15--13--11--10--11/13--------------------------------------------|
Gb-----------12--10--9--9--9h10--12-----------------------12--/12--14-15--14--14-14-14-14-15--15/17-|
Db--------------------------------------------------------------------------------------------------|
Ab--------------------------------------------------------------------------------------------------|
Eb--------------------------------------------------------------------------------------------------|

Eb--13--12------15--13--12---17^~--15/17--15--13--12^12-----------------------------------------|
Bb----------15------------------------------------------13-13/15--13----------------------------|
Gb-------------------------------------------------------------------*12------------------------|
Db-----------------------------------------------------------------------*12--15----/14----/12--|
Ab----------------------------------------------------------------------------------------------|
Eb----------------------------------------------------------------------------------------------|
Comments