Staind - Everything Changes Chords & Tabs

 

Everything Changes Chords & Tabs

Staind Chords & Tabs

Version: 1 Type: Tab 1 rating
1 star 2 stars 3 stars 4 stars 5 stars
comments

Everything Changes Tab

   
##################################################################################
# This file is the author's own work and represents their interpretation of the  #
# song. You may only use this file for private study, scholarship, or research.  #
##################################################################################

Staind - Everything Changes


E           A    C# / Db  (I'll just call it Db for now)B
E|---------------------|E|--5--------------------|E|-4-----------------||-2-----------------|
B|---------------------|B|--5--------------------|B|-4--5--------------||-2-----------------|
G|-----1---------------|G|--5-6------------------|G|-4------6----------||-2-----4-----------|
D|----2----------------|D|--5----7---------------|D|-4----6------------||-2---4-------------|
A|---2-----------------|A|--5--7-----------------|A|-4-----------------||-2-----------------|
E|-0-------------------|E|--5--------------------|E|-------------------||-------------------|



Lead for instrumental part (you may want to listen to the song while you play this just incase I do my slides a bit different).
[ Tab from: http://www.guitartabs.cc/tabs/s/staind/everything_changes_tab.html ]
E|---------------------------------------------------------------------------------------------------------------12-11-9-14-12-11-14slide16---16--14--12--12--11--------------------------------------
B|--------------------------------------12slide14---12---10---9---10---12---7---7-7-7-9---10---9---9-9-9-10---12-------------------------------------------------12---14------------------------------
G|-11slide13---13---11---9---8--8-8-9-6-----------------------------------------------------------------------------------------------------------------------------------12--------------------------
D|---------------------------------------------------------------------------------------------------------------------------------------------------------------------------11-----------------------
A|-----------------------------------------------------------------------------------------------------------------------------------------------------------------------------11---14---13---11---9--
E|----------------------------------------------------------------------------------------------------------------------------------------------------------------------------------------------------


More to come as I'm still learning some of the lead in the verses.  Hope this helps guys.  Later.


=====================================================================
This is truly a great song, and I doubt that very many (if any)of you
know the true meaning behind Aaron Lewis's lyrics.The tab that 
"Sadblueknight@aol.com" has been the best, although the
'G' chord he has listed is not too acurate. Here is his version with
my "new-and-improved" chord this is the actual chord that Aaron uses

artist: Staind
song:   Epiphany
album:  Break the Cycle (2001)

Dropped D Tuning, down half step 
Chords : 
         D             G         Bm

Eb---------------------------------
Bb-------2-----------------------3-
Gb-------3-------------7---------4-
Db-------0-------------7---------4-
Ab-------0-------------5---------2-
Db-------0-------------5-----------

========================================================================
Comments