Staind - Everything Changes Chords & Tabs

 

Everything Changes Chords & Tabs

Staind Chords & Tabs

Version: 1 Type: Bass Tab 0 ratings
1 star 2 stars 3 stars 4 stars 5 stars
comments

Everything Changes Bass Tab

-------------------------------------------------------------------------------
			     Everything Changes - by: Staind
-------------------------------------------------------------------------------

Tabbed By : Jacob (dagohbah)
e-mail: dagohbah@hotmail.com, if you have any questions or concerns. This is my
first tab, so take it easy if you can on the comments! lol

Tuning: Standard

Main Riff/Verse/Chorus

G|---------------------------------------------------------------------------|
D|---------------------------------------------------------------------------|
A|----------0-0-0-0--4-4-4-4--0-0-0-0----------------------------------------|
E|-0-0-0-0-------------------------------------------------------------------|
[ Tab from: http://www.guitartabs.cc/tabs/s/staind/everything_changes_btab.html ]
Bridge (play twice, end with an open A)

G|---------------------------------------------------------------------------|
D|---------------------------------------------------------------------------|
A|-4-4-4-4--0-0-0-0-----------2-2-2-2--0-------------------------------------|
E|-------------------0-0-0-0-------------------------------------------------|

Bridge Variation (in the same key, different place on frets)

G|----------2-2-2-2----------------------------------------------------------|
D|-------------------2-2-2-2-------------------------------------------------|
A|-4-4-4-4--------------------2-2-2-2----------------------------------------|
E|---------------------------------------------------------------------------|
Comments