Staind - Epiphany Chords & Tabs

 

Epiphany Chords & Tabs

Staind Chords & Tabs

Version: 4 Type: Tab 0 ratings
1 star 2 stars 3 stars 4 stars 5 stars
comments

Epiphany Tab

   
Staind, Epiphany.
Tabbed by Rich, sixstrngkiller21@cs.com.
  
Acoustic tuned to Eb Ab Db Gb Bb Eb

Verse:
:----------------------------
:----------------------------
:----7------7----------------
:----7------7----------------
:-5--5--5-5-5----------------
:----------------------------
[ Tab from: http://www.guitartabs.cc/tabs/s/staind/epiphany_tab_ver_4.html ]
Chorus:
:----------------------------
:----------------------------
:-7/11---11---11-------------
:-7/11---11---11-------------
:-5/9--9-9--9-9--------------
:----------------------------

Well thats pretty much it. A pretty easy song off of their new cd Break the Cycle. Aaron plays everything in this song. He's got a cool drum simulator he plays wit his feet lol. On the 3rd chorus he might slide to a 10, 12, 12 chord.
Enjoy~!~

 
:: Ultimate Guitar Archive :: 
http://www.ultimate-guitar.com 

Comments