Staind - Dysfunction Chords & Tabs

 

Dysfunction Chords & Tabs

Staind Chords & Tabs

Version: 1 Type: Tab 0 ratings
1 star 2 stars 3 stars 4 stars 5 stars
comments

Dysfunction Tab

   
Band - Staind
Album - Dysfunction
-------------------

01 - Suffocate
02 - Just Go
03 - Me
04 - Raw
05 - Mudshovel
06 - Home
07 - A Flat
08 - Crawl
09 - Spleen
10 - Excess Baggage (secret track)

----------------
 01 - Suffocate
----------------

Tuning: Bb Gb Db Ab Eb Ab

Intro:
Bb|--------------------|
Gb|--------------------|
Db|--------------------|
Ab|--2--2-2--2-2--2-2--| x2
Eb|--2--2-2--2-2--2-2--|                            
Ab|--2--2-2--2-2--2-2--|           
		      
Bb|--------------------|
Gb|--------------------|
Db|--------------------|      
Ab|--2--x--2^3--2-0----|
Eb|--2--x--2^3--2-0----|
Ab|--2--x--2^2--2-0----|             

Verse:
Bb|--------------|
Gb|--------------|
Db|--------------|
Ab|--2^2----2^2--|
Eb|--2^2----2^2--|
Ab|--2-2----2-2--|

Chorus:
Bb|------------|
Gb|------------|
Db|------------|
Ab|--5--4------|
Eb|--3--2---3--|
Ab|--3--2---0--|

Bridge:                  repeat      
Bb|---------------|--------------------|
Gb|---------------|--------------------|
Db|---------------|-------3------------|
Ab|--10-\--7------|---2---3-2-x-x-2-0--|
Eb|---------------|---2---1-2-x-x-2-0--|  
Ab|--10-\--7------|---2-----2-x-x-2-0--|
    
Outro:
Bb|---------------------|
Gb|---------------------|
Db|---------------------|      
Ab|--2--x--2^3--0--2-0--|
Eb|--2--x--2^3--0--2-0--|
Eb|--2--x--2^3--0--2-0--|

--------------
 02 - Just Go
--------------

Tuning: Eb Bb Gb Db Ab Db
Key:
^  - bend 1/2 step
() - slightly hold note

Intro:
eb|---------------------------------|---------------------------------|
Bb|---------------------------------|---------------------------------|  
Gb|---------------------------------|---------------------------------|
Db|---------------------------------|---------------------------------| x2
Ab|--8------5^(5)-------------------|--8------5^(5)-------------------|
Db|----10p0-------0-3h5--5-5p3--3p0-|----10p0-------0-3h5--5-3--------|

eb|---------------------------------|---------------------------------|
Bb|---------------------------------|---------------------------------|
Gb|---------------------------------|---------------------------------|
Db|-10------------------------------|-10------------------------------|
Ab|--8------5^(5)---3h5--5-5p3--3p0-|--8------5^(5)---3h5--5-3--------|
Db|----10p0-------0-3h5--5-5p3--3p0-|----10p0-------0-3h5--5-3--------|

Verse:
eb|-----------|    |------------|
Bb|-----------|    |------------|
Gb|-----------|    |------------|
Db|-10--------| x7 |-10---------|
Ab|--8--------|    |--8---------|
Db|----10p0-0-|    |-----10p9~~-|

Chorus:
eb|---------------------------------|---------------------------------|
Bb|---------------------------------|---------------------------------|
Gb|---------------------------------|---------------------------------|
Db|-10------------------------------|-10------------------------------| x4
Ab|--8------5^(5)---3h5--5-5p3--3p0-|--8------5^(5)---3h5--5-3--------|
Db|----10p0-------0-3h5--5-5p3--3p0-|----10p0-------0-3h5--5-3--------|

Verse:
eb|-----------|    |------------|
Bb|-----------|    |------------|
Gb|-----------|    |------------|
Db|-10--------| x7 |-10---------|
Ab|--8--------|    |--8---------|
Db|----10p0-0-|    |-----10p9~~-|

Chorus:
eb|---------------------------------|---------------------------------|
Bb|---------------------------------|---------------------------------|
Gb|---------------------------------|---------------------------------|
Db|-10------------------------------|-10------------------------------| x4
Ab|--8------5^(5)---3h5--5-5p3--3p0-|--8------5^(5)---3h5--5-3--------|
Db|----10p0-------0-3h5--5-5p3--3p0-|----10p0-------0-3h5--5-3--------|

Bridge:
eb|-----|-------------------------------|
Bb|-----|-------------------------------|
Gb|-----|-9-------10p9---12p9---10-(10)-|
Db|-----|---10--------------------------| repeat
Ab|--0--|------0-------0------0---------|
Db|-----|-------------------------------|


eb|------------------|
Bb|------------------|  
Gb|------------------|
Db|--0-2-0-2-0-1-----| x8
Ab|--0-2-0-2-0-1-----|
Db|--0-2-0-2-0-1-----|
  P.M. . . . . .

Chorus:
eb|---------------------------------|---------------------------------|
Bb|---------------------------------|---------------------------------|
Gb|---------------------------------|---------------------------------|
Db|-10------------------------------|-10------------------------------| x4
Ab|--8------5^(5)---3h5--5-5p3--3p0-|--8------5^(5)---3h5--5-3--------|
Db|----10p0-------0-3h5--5-5p3--3p0-|----10p0-------0-3h5--5-3--------|


Outro:
eb|---------------------------|    |----------------------------|
Bb|---------------------------|    |----------------------------| 
Gb|----------0-------------0--|    |---0------0------0------0---|
Db|-10-(10)^-0----10-(10)^-0--| x8 |---0------0------0------0---| x2
Ab|--8--(8)^-0-----8--(8)^-0--|    |---0------0------0------0---| 
Db|----------0-------------0--|    |---0------0------0------0---|

---------
 03 - Me
---------

Tuning: Drop B (C# G# E B F# B)
Key:
*   - let ring
=== - slide
p   - put off
h   - hammer on

Intro:	   (Guitar1)
C#|-------------------------|
G#|-------------------------|
E |-------------------------|
B |-----6----6-------6--6p5-| x2
F#|-------------------------|
B |-5-5--5-5--5-5--5--5-----|

Verse: (Guitar 2)
C#|------------------|
G#|---------------1*-|
E |-------1*---------|
B |-3*---------------| repeat
F#|------------------|
B |------------------|

	   (Guitar 1)
C#|-------------------------|
G#|-------------------------|
E |-------------------------|
B |-----6----6-------6--6p5-| repeat
F#|-------------------------|
B |-5-5--5-5--5-5--5--5-----|

C#|------------------|
G#|------------------|
E |------------------|
B |-----6----6--6*---|
F#|------------------|
B |-5-5--5-5--5------|

	(Guitar 2)
C#|-----------------|
G#|-----------------|
E |-----------------|
B |----5-----(6)----|
F#|----3-----(5)----|
B |----3*===-(5)----|

C#|---------------------------------|
G#|---------------------------------|
E |--12p10------------12p10---------|
B |-------10*--------------10===(3)-|
F#|---------------------------------|
B |---------------------------------|

	   (Guitar 1)
C#|-------------------------|
G#|-------------------------|
E |-------------------------|
B |-----6----6-------6--6p5-| repeat
F#|-------------------------|
B |-5-5--5-5--5-5--5--5-----|

C#|----------------|
G#|----------------|
E |----------------|
B |-----6----6--6*-|
F#|----------------|
B |-5-5--5-5--5----|

   (Guitar 2)

C#|-----------|
G#|-----------|
E |-14--------|
B |---12------|
F#|------12---|
B |--------12-|

Chorus:		(Guitar 2)
C#|------------------------------------|
G#|------------------------------------|
E |------------------------------------|
B |----14--14-14-10---10--4--4-4-2---2-| x4
F#|----12--12-12--8---8---2--2-2-0---0-|
B |----12--12-12--8---8---2--2-2-0---0-|

C#|-------------|
G#|-------------|
E |-------------|
B |---5-----(6)-|
F#|---3-----(5)-|
B |---3*===-(5)-|

Bridge:		   (Guitar 2)

C#|---------------------------------------------------------------------------------|
G#|----------------------14---------------------------------------------------------|
E |--------------14---------14---------12-------------------------------------------|
B |-----12----12---12----------12----12-------9p7------------------9p7--------------| x4
F#|--12----12---------12----------12-------10-------------------10------------------|
B |-----------------------------------------------12h(14)p(12)---------12h(14)p(12)-|

C#|-----------------------------------------------------------------|
G#|----------------------14-----------------------------------------|
E |--------------14---------14---------12---------------------------|
B |-----12----12---12----------12----12-------9p7-------------------|
F#|--12----12---------12----------12-------10-----------------------|
B |-----------------------------------------------12h(14)p(12)-11*--|


Chorus:		(Guitar 2)
C#|------------------------------------|
G#|------------------------------------|
E |------------------------------------|
B |----14--14-14-10---10--4--4-4-2---2-| x4
F#|----12--12-12--8---8---2--2-2-0---0-|
B |----12--12-12--8---8---2--2-2-0---0-|

C#|-------------|
G#|-------------|
E |-------------|
B |---5-----(6)-|
F#|---3-----(5)-|
B |---3*===-(5)-|

Ending:   (Guitar 1)
C#|-------------------------|
G#|-------------------------|
E |-------------------------|
B |-----6----6-------6--6p5-| repeat
F#|-------------------------|
B |-5-5--5-5--5-5--5--5-----|

C#|----------------|
G#|----------------|
E |----------------|
B |-----6----6--6*-|
F#|----------------|
B |-5-5--5-5--5----|

	(Guitar 2)

C#|------------------|
G#|---------------1*-|
E |-------1*---------|
B |-3*---------------| repeat
F#|------------------|
B |------------------|

----------
 04 - Raw
----------
Tuning: Eb Bb Gb Db Ab Db

Intro:
eb|-------------------------------0h1--|
Bb|---------------------------0h1------|
Gb|------------------------------------|
Db|------0-0-----0-----0-0-0-----------| x8
Ab|--0h1-0-0-0h1-0-0h1-0-0-0-----------|
Db|--0h1-0-0-0h1-0-0h1-0-0-0-----------|
P.M.     . .     .     . . .

Verse:
eb|---------------------------------------------------|
Bb|---------------------------------------------------|
Gb|------------------------------0----0-------0----0--|
Db|-----7---7-------7----7----------------------------| x3
Ab|---------------------------------------------------|
Db|---4---4---4---5----5---5---1----1---1---1---1-----|

eb|----------------------------|
Bb|----------------------------|
Gb|----------------------------|
Db|-----7---7-------7----7-----|
Ab|----------------------------|
Db|---4---4---4---5----5---5---|

Prechorus:
eb|-------------------------------0h1--|
Bb|---------------------------0h1------|
Gb|------------------------------------|
Db|------0-0-----0-----0-0-0-----------| x4
Ab|--0h1-0-0-0h1-0-0h1-0-0-0-----------|
Db|--0h1-0-0-0h1-0-0h1-0-0-0-----------|
P.M.     . .     .     . . .

Chorus: (Guitar 1)
eb|--------------|
Bb|---9^-1-Step--|
Gb|--11^---------|
Db|--------------| x7
Ab|--------------|
Db|--------------| 

    (Guitar 2)
eb|--------------|
Bb|--------------|
Gb|--------------|
Db|--5----6------| x7
Ab|--3----4------|
Db|--3----3------|

eb|----------|
Bb|----------|
Gb|----------|
Db|----3-----|
Ab|----1-----|
Db|----1-----|

Postchorus:
eb|-------------------------------0h1--|
Bb|---------------------------0h1------|
Gb|------------------------------------|
Db|------0-0-----0-----0-0-0-----------| x4
Ab|--0h1-0-0-0h1-0-0h1-0-0-0-----------|
Db|--0h1-0-0-0h1-0-0h1-0-0-0-----------|
P.M.     . .     .     . . .

Verse:
eb|---------------------------------------------------|
Bb|---------------------------------------------------|
Gb|------------------------------0----0-------0----0--|
Db|-----7---7-------7----7----------------------------| x3
Ab|---------------------------------------------------|
Db|---4---4---4---5----5---5---1----1---1---1---1-----|

eb|----------------------------|
Bb|----------------------------|
Gb|----------------------------|
Db|-----7---7-------7----7-----|
Ab|----------------------------|
Db|---4---4---4---5----5---5---|

Prechorus:
eb|-------------------------------0h1--|
Bb|---------------------------0h1------|
Gb|------------------------------------|
Db|------0-0-----0-----0-0-0-----------| x4
Ab|--0h1-0-0-0h1-0-0h1-0-0-0-----------|
Db|--0h1-0-0-0h1-0-0h1-0-0-0-----------|
P.M.     . .     .     . . .

Chorus: (Guitar 1)
eb|--------------|
Bb|---9^-1-Step--|
Gb|--11^---------|
Db|--------------| x7
Ab|--------------|
Db|--------------| 

    (Guitar 2)
eb|--------------|
Bb|--------------|
Gb|--------------|
Db|--5----6------| x7
Ab|--3----4------|
Db|--3----3------|

eb|----------|
Bb|----------|
Gb|----------|
Db|----3-----|
Ab|----1-----|
Db|----1-----|

Bridge: (pm)
eb|-------------------|    |-----------------------| 
Bb|-------------------|    |-----------------------| 
Gb|-------------------|    |-----------------------| 
Db|-------------------| x3 |-----------------------| 
Ab|-------------------|    |-----------------------| 
Db|--7-7-7-7-8-8-8-8--|    |12-11-11-12-11-11-12-12| 

eb|------------------------|
Bb|------------------------|
Gb|------------------------|
Db|------------------------|
Ab|--12-11-11-12-11-11-12--|
Db|--12-11-11-12-11-11-12--|

eb|---------------|    |---------------------------|
Bb|---------------|    |---------------------------|
Gb|---------------|    |---------------------------|
Db|---------------| x3 |---------------------------|
Ab|--7-7-8-7-7-8--|    |--12-11-11-12-11-11-12-12--|
Db|--7-7-8-7-7-8--|    |--12-11-11-12-11-11-12-12--|

Chorus: (Guitar 1)
eb|--------------|
Bb|---9^-1-Step--|
Gb|--11^---------|
Db|--------------| x7
Ab|--------------|
Db|--------------| 

    (Guitar 2)
eb|--------------|
Bb|--------------|
Gb|--------------|
Db|--5----6------| x7
Ab|--3----4------|
Db|--3----3------|

eb|----------|
Bb|----------|
Gb|----------|
Db|----3-----|
Ab|----1-----|
Db|----1-----|

Outro:
eb|-------------------------------0h1--|
Bb|---------------------------0h1------|
Gb|------------------------------------|
Db|------0-0-----0-----0-0-0-----------| x8
Ab|--0h1-0-0-0h1-0-0h1-0-0-0-----------|
Db|--0h1-0-0-0h1-0-0h1-0-0-0-----------|
P.M.     . .     .     . . .

----------------
 05 - Mudshovel
----------------
Tuning: Bb Gb Db Ab Eb Ab

Intro:
Bb|-----------------------------------------------------------------|
Gb|-----------------------------------------------------------------|
Db|-----------------------------------------------------------------|
Ab|-5-5-5-5-4-4-4-4-3-3-3-3-4-4-4-4-5-5-5-5-4-4-4-4-3-3-3-3-4-4-4-4-|
Db|-----------------------------------------------------------------|
Ab|-----------------------------------------------------------------|
Nh  . . . . . . . . . . . . . . . . . . . . . . . . . . . . . . . . .

Verse:
Bb|-----------------|
Gb|-----------------|
Db|-----------------|
Ab|-5-~~~-----------|
Db|-------6-~~~-4---|
Ab|-----------------|
Nh  .     .     .

Bb|-------|
Gb|-------|
Db|-------|
Ab|-3-~~~-|
Db|-------|
Ab|-------|
Nh  .
[ Tab from: http://www.guitartabs.cc/tabs/s/staind/dysfunction_tab.html ]
Chorus:
Bb|-------------------------------------------|
Gb|-------------------------------------------|
Db|---------------------------------5~~~--5---|
Ab|---------------------------------3~~~--3---|
Db|-2----2----2----2----2----2----------------|
Ab|-0----0----0----0----0----0----------------|
		       	     pm
Bb|-------------------------------------------|
Gb|-------------------------------------------|
Db|-------------------------------------------|
Ab|-------------------------------------------|
Db|-7----7----7----7----7----7-5~~~-----------|
Ab|-5----5----5----5----5----5-3~~~-----------|
			     pm

Chorus:
Bb|-------------------------------------------|
Gb|-------------------------------------------|
Db|-------------------------------------------|
Ab|---------------------------------10~~~-10--|
Db|-2----2----2----2----2----2------10~~~-10--|
Ab|-0----0----0----0----0----0----------------|
			     pm

Bb|-------------------------------------------|
Gb|-------------------------------------------|
Db|-------------------------------------------|
Ab|-0----0----0----0----0----0----------------|
Db|-0----0----0----0----0----0-5~~~-----------|
Ab|----------------------------3~~~-----------|
			     pm

Bridge:
Bb|-----------------------------------------------------------------|
Gb|-----------------------------------------------------------------|
Db|-----------------------------------------------------------------|
Ab|-5~~---0~~---6~~-----------------5~~---0~~---6~~-----------------|
Db|-5~~---0~~---6~~---------5-------5~~---0~~---6~~---------5-------|
Ab|-------------------0-----3---0---------------------0-----3---0---|

Outro:
Bb|---|
Gb|---|
Db|---|
Ab|-0-|
Db|-2-|
Ab|-0-|

-----------
 06 - Home
-----------
Tuning: Bb Gb Db Ab Db Ab

Intro:  
Bb|-2h3h2-------------------------------------|       
Gb|-0-----------------------------------------|      
Db|-0---------11-11-----0---------------------|
Ab|-----------9--9h10---0--12------10h12-12---| x3
Db|-----------9--9------0--12--12--10h12-10---| 
AB|------------------------10--10-------------|  

Bb|-----------------------| 
Gb|-----------------------| 
Db|-9---------------------| 
Ab|-9h10p9----------------| 
Db|-9------10p9-----------| 
AB|---------------10-9-0~-| 


Verse:  
Bb|----------6---8~-----------------------------------| 
Gb|------------0----14--12-14p12----14--12-14p12------| 
Db|-0---3--------------12--------------12-------------|
Ab|-0-----2-----------------------13~------------12~--| x4
Db|-0-------------------------------------------------| 
Ab|---------------------------------------------------| 

Chorus: (dist.)  
Bb|------------------------------------|
Gb|-7---7--7-7--7--7---4~~~----4r-4p0--|
Db|-7---7--7-7--7--7---4~~~----4--4p0--|
Ab|-5---5--5-5--0--0---2~~~------------| x4
Db|-5---5--5-5--0--0---2~~~--2---------|
Ab|------------------------------------|

Bb|----------------------------|
Gb|-7---7--7-7--7--7---4~~~----|
Db|-7---7--7-7--7--7---4~~~----|
Ab|-5---5--5-5--0--0---2~~~----|
Db|-5---5--5-5--0--0---2~~~----|
Ab|----------------------------|

Verse:  
Bb|----------6---8~-----------------------------------| 
Gb|------------0----14--12-14p12----14--12-14p12------| 
Db|-0---3--------------12--------------12-------------|
Ab|-0-----2-----------------------13~------------12~--| x4
Db|-0-------------------------------------------------| 
Ab|---------------------------------------------------| 

Bridge:  
Bb|-----------------------------------------| 
Gb|-------0----------0~~-----0-----------2~-| 
Db|-----4---4-------4-------4-4---------0---|
Ab|----0-----0----0--------0---0------0-----| x2
Db|---0-------0--0--------0-----0-0-3-------| 
Ab|--3----------3--------3------------------| 

Bb|-----------------------------| 
Gb|--0-0-------0-----2----------| 
Db|--0-0-x---x-0-----0----------|
Ab|--x-x-x---x-x-----0----------| x4
Db|--5-5-x-5-x-5-----0h3--------| 
Ab|--3-3-x-3-x-3----------0-----| 

Chorus: (dist.)  
Bb|------------------------------------|
Gb|-7---7--7-7--7--7---4~~~----4r-4p0--|
Db|-7---7--7-7--7--7---4~~~----4--4p0--|
Ab|-5---5--5-5--0--0---2~~~------------| x4
Db|-5---5--5-5--0--0---2~~~--2---------|
Ab|------------------------------------|

Bb|----------------------------|
Gb|-7---7--7-7--7--7---4~~~----|
Db|-7---7--7-7--7--7---4~~~----|
Ab|-5---5--5-5--0--0---2~~~----|
Db|-5---5--5-5--0--0---2~~~----|
Ab|----------------------------|

-------------
 07 - A Flat
-------------

Tuning: Eb Bb Gb Db Ab Db

Intro:  
eb|-----------------|------------------|
Bb|-----------------|------------------|
Gb|-----------------|---7----5----2----| 
Db|-----------------|---0----0----0----|
Ab|--5--5--5--5/6---|------------------|
Db|-----------------|------------------|

eb|-----------------------------------------|
Bb|-----------------------------------------|
Gb|--7--7-7-7-7-7/8-------------------------|
Db|--7--7-7-7-7-7/8-------------------------| x4
Ab|--5--5-5-5-5-5/6--0--3-3-3-3-3h5-3h5-----|
Db|------------------0--3-3-3-3-3h5-3h5-----|
pm      ...........     .......

Verse:
eb|------------------------------------------------------|
Bb|------------------------------------------------------|
Gb|------------------------------------------------------|
Db|------------------------------------------------------|
Ab|--3h5-3-3h5-3-3h5-3-3h5-3-3h5-3-3h5-3--3-3-3-3-3-3/4--|
Db|--3h5-3-3h5-3-3h5-3-3h5-3-3h5-3-3h5-3--5-5-5-5-5-5/6--|
pm       .     .     .     .     .     .  ..........

      (Guitar 1)
eb|-----------------|
Bb|-----------------|
Gb|--7----7/8---7---|
Db|-----------------|
Ab|-----------------|
Db|-----------------|

	      (Guitar 2)
eb|--------------------------------|
Bb|--------------------------------|
Gb|--7--7-7-7-7-7/8----------------|
Db|--7--7-7-7-7-7/8----------------|
Ab|--5--5-5-5-5-5/6--3--3h5-3-3h5--| 
Db|------------------3--3h5-3-3h5--|
pm      ...........  .      .


Verse:
eb|------------------------------------------------------|
Bb|------------------------------------------------------|
Gb|------------------------------------------------------|
Db|------------------------------------------------------|
Ab|--3h5-3-3h5-3-3h5-3-3h5-3-3h5-3-3h5-3--3-3-3-3-3-3/4--|
Db|--3h5-3-3h5-3-3h5-3-3h5-3-3h5-3-3h5-3--5-5-5-5-5-5/6--|
pm       .     .     .     .     .     .  ..........

eb|-----------------------------------------|
Bb|-----------------------------------------|
Gb|--7--7-7-7-7-7/8-------------------------|
Db|--7--7-7-7-7-7/8-------------------------|
Ab|--5--5-5-5-5-5/6--0--3-3-3-3-3h5-3h5-----|
Db|------------------0--3-3-3-3-3h5-3h5-----|
pm      ...........     .......

eb|------------------------|
Bb|------------------------|
Gb|------------------------|
Db|--------7-----------5---|
Ab|-----4-----------3------|
Db|--5-----------3---------|

eb|-------------------------------| 
Bb|-------------------------------|
Gb|-------------------------------|
Db|-------------------------------|
Ab|--------------------5p4--------|
Db|--7p5-6p4--X-X-X-X-------4h5---|

eb|-------------------------------|
Bb|-------------------------------|
Gb|-------------------------------|
Db|--------------------7\5--------|
Ab|--7p5-6p4--X-X-X-X--5\4--4h5---|
Db|--7p5-6p4--X-X-X-X-------4h5---|
      
Chorus:(Guitar 1)
eb|-----------------|
Bb|-----------------|
Gb|--7----7/8---7---|
Db|-----------------|
Ab|-----------------|
Db|-----------------|

		   (Guitar 2)
eb|-----------------------------------------|
Bb|-----------------------------------------|
Gb|--7--7-7-7-7-7/8-------------------------|
Db|--7--7-7-7-7-7/8-------------------------|
Ab|--5--5-5-5-5-5/6---3--3h5-3-3h5----------|
Db|-------------------3--3h5-3-3h5----------|
pm      ...........   .      .

Verse:
eb|------------------------------------------------------|
Bb|------------------------------------------------------|
Gb|------------------------------------------------------|
Db|------------------------------------------------------|
Ab|--3h5-3-3h5-3-3h5-3-3h5-3-3h5-3-3h5-3--3-3-3-3-3-3/4--| 
Db|--3h5-3-3h5-3-3h5-3-3h5-3-3h5-3-3h5-3--5-5-5-5-5-5/6--|
pm       .     .     .     .     .     .  ..........

Chorus:
eb|-----------------------------------------|
Bb|-----------------------------------------|
Gb|--7--7-7-7-7-7/8-------------------------|
Db|--7--7-7-7-7-7/8-------------------------|
Ab|--5--5-5-5-5-5/6--0--3-3-3-3-3h5-3h5-----|
Db|------------------0--3-3-3-3-3h5-3h5-----|
pm      ...........     .......

eb|------------------------------------------------------|
Bb|------------------------------------------------------|
Gb|------------------------------------------------------|
Db|------------------------------------------------------|
Ab|--3h5-3-3h5-3-3h5-3-3h5-3-3h5-3-3h5-3--3-3-3-3-3-3/4--|
Db|--3h5-3-3h5-3-3h5-3-3h5-3-3h5-3-3h5-3--5-5-5-5-5-5/6--|
pm       .     .     .     .     .     .  .........

------------
 08 - Crawl
------------

Tuning: Bb Gb Db Ab Db Ab

Intro
Bb|---------------------------------------------------|
Gb|---------------------7----7----7----7--------------|
Db|---------------------------------------------------|
Ab|------------------------7----7----7----7-----------|
Db|-6/5-5-6/5-5-6/5-5-5-------------------------------|
Ab|-4/3-3-4/3-3-4/5-3-3-------------------------------|
pm    .     .     .
Nh                      .  . .  . .  . .  .

Verse
Bb|---------------------|
Gb|---------------------|
Db|---------------------|
Ab|---------------------|
Db|-6/5-5-6/5-5-6/5-5-5-|
Ab|-4/3-3-4/3-3-4/3-3-3-|
      *     *     *
thing before chorus
Bb|---------------------------------------------------------|
Gb|-------------------------------------7----7----7----7----|
Db|---------------------------------------------------------|
Ab|----------------------------------------7----7----7----7-|
Db|-6/5-5-5--6/5-5-5--6/5-5-5--6/5-5-5----------------------|
Ab|-4/3-3-3--4/3-3-3--4/3-3-3--4/3-3-3----------------------|
pm    .        .        .        .
Nh			                .  . .  . .  . .  .

Chorus: (x2)
Bb|------------------------|
Gb|-----------------14-----|
Db|-16--14--12--14-----12--|
Ab|------------------------| x2
Db|------------------------|
Ab|------------------------|

Bb|---------------|
Gb|------------14-|
Db|---------12----|
Ab|-12--14--------| x2
Db|---------------|
Ab|---------------|

Bridge:
Bb|-----------------------------------|
Gb|-----------------------------------|
Db|-----------------------------------|
Ab|-----------------------------------|
Db|-----------------------------------|
Ab|--0-3-0-0-3-2-0-0-0-3-0-0-6-5-0-0--|
pm     . . . .     . . . . . .     .

Bb|-----------------------------------|
Gb|-----------------------------------|
Db|-----------------------------------|
Ab|--0-3-0-0-3-2-0-0-0-3-0-0-6-5-0-0--|
Db|--0-3-0-0-3-2-0-0-0-3-0-0-6-5-0-0--|
Ab|--0-3-0-0-3-2-0-0-0-3-0-0-6-5-0-0--|
pm     . . . .     . . . . . .     .
-------------
 09 - Spleen
-------------

Tuning: Eb Bb Gb Db Ab Db

Intro:
eb|------------------------------------------------------|
Bb|------------------------------------------------------|
Gb|--8------------8------------8-------------------------|
Db|--7--0---3p2---7--0---3p2---7--0---3p2---3p2---2-3/5--| x4
Ab|--5--0---3p2---5--0---3p2---5--0---3p2---3p2---2-3/5--|
Db|--0--0---3p2---0--0---3p2---0--0---3p2---3p2---2-3/5--|
pm      .            .            .
 
Verse:
eb|---------------------------|--------------------|
Bb|---------------------------|--------------------|
Gb|---------------------------|--8--7--8--7--5--7--|
Db|---------------------------|--6--5--6--5--3--5--| repeat
Ab|--6-6-6-5-5-5-6-6-6-3-3-3--|--6--5--6--5--3--5--|
Db|---------------------------|--6--5--6--5--3--5--|
pm   . . . . . . . . . . . .

Chorus:
eb|--------------------------------------------------------|
Bb|--------------------------------------------------------|
Gb|--------------------------------------------------------|
Db|--00000-0000-1---00000-0000-1---00000-0000-1---3-2-5-3--| x3
Ab|--00000-0000-1---00000-0000-1---00000-0000-1---3-2-5-3--|
Db|--00000-0000-1---00000-0000-1---00000-0000-1---3-2-5-3--|
pm                                                . . . .

Verse:
eb|---------------------------|--------------------|
Bb|---------------------------|--------------------|
Gb|---------------------------|--8--7--8--7--5--7--|
Db|---------------------------|--6--5--6--5--3--5--| repeat
Ab|--6-6-6-5-5-5-6-6-6-3-3-3--|--6--5--6--5--3--5--|
Db|---------------------------|--6--5--6--5--3--5--|
pm   . . . . . . . . . . . .

Chorus:
eb|--------------------------------------------------------|
Bb|--------------------------------------------------------|
Gb|--------------------------------------------------------|
Db|--00000-0000-1---00000-0000-1---00000-0000-1---3-2-5-3--| x3
Ab|--00000-0000-1---00000-0000-1---00000-0000-1---3-2-5-3--|
Db|--00000-0000-1---00000-0000-1---00000-0000-1---3-2-5-3--|
pm                                                . . . .

Interlude:
eb|----------------|
Bb|----------------|
Gb|----------------|
Db|----------------| x2
Ab|--0-2-3--0-2-3--|
Db|----------------|
                  
	     (clean)
eb|---------------------------|
Bb|---------------------------|
Gb|---------------------------|
Db|--3----------5----------2--| x2
Ab|--3----------5----------2--|
Db|--3----------5----------2--|
pm   .          .          .   

	     (dist.)
eb|---------------------------|
Bb|---------------------------|
Gb|---------------------------|
Db|--3----------5----------2--| x3
Ab|--3----------5----------2--|
Db|--3----------5----------2--|

eb|--------------------|
Bb|--------------------|
Gb|--8--7--8--7--5--7--|
Db|--6--5--6--5--3--5--| x4
Ab|--6--5--6--5--3--5--|
Db|--6--5--6--5--3--5--|

Chorus:
eb|--------------------------------------------------------|
Bb|--------------------------------------------------------|
Gb|--------------------------------------------------------|
Db|--00000-0000-1---00000-0000-1---00000-0000-1---3-2-5-3--| x3
Ab|--00000-0000-1---00000-0000-1---00000-0000-1---3-2-5-3--|
Db|--00000-0000-1---00000-0000-1---00000-0000-1---3-2-5-3--|
pm                                                . . . .
---------------------
 10 - Excess Baggage
---------------------

Intro/verse:
e|---------------------|
B|---------------------|
G|------------0--------|   
D|---------4-----4-----| x4
A|------2-----------2--|
E|---0-----------------|

e|---------------------|
B|---------------------|
G|------------0--------|
D|---------4-----4-----| x4
A|------2-----------2--|
E|---3-----------------|

Chorus:
e|---------------------|
B|------------0--------|
G|---------2-----2-----| 
D|------2-----------2--| x2
A|---0-----------------|
E|---------------------|

e|---------------------|
B|------------0--------|
G|---------0-----0-----|
D|------2-----------2--| x2
A|---3-----------------|
E|---------------------|
Comments