Staind - Devil Chords & Tabs

 

Devil Chords & Tabs

Staind Chords & Tabs

Version: 2 Type: Tab

Devil Tab

I have been dying to play this song ever since i heard it. Since nobody did a tab on it 
just did a bad job), took matters into my own hands and made the tab myself. I added the 
later after i figured out the intro.

Guitar tuned down 1/2 a step.

Pretty much most of the song (verses):
|--0-------0-------0-------0-------0-------0-------------0-------0-------0-|
|3---3-0-1---1---0---0-------0---3---3---1---1---0-1-0-----0-------0-------|
|0-------0-----0-0-----0-2-----2-0-----0-0-----0-0-----2-----2-2-----2-2---|
|2-------2-------2-------2-------2-------2-------2-----2-------2-------2---|
|--------------------------------------------------------------------------|
|--------------------------------------------------------------------------|
[ Tab from: http://www.guitartabs.cc/tabs/s/staind/devil_tab_ver_2.html ]
|------0------|
|0-------0----|
|--2-2-----2--|
|----2--------|
|-------------|
|-------------|

Now, the chorus (repeat 4 times)

|-----1-------1-------------1-------1-------------0----------0----------0--|
|1------1----------1----------1----------1---0------0---0------0---0------0|
|2--------2-2--------2-2--------2-2--------2-2--------2-2--------2-2-------|
|0----------0----------0----------0----------2----------2----------2-------|
|--------------------------------------------------------------------------|
|--------------------------------------------------------------------------|

|----0-------|
|--0------0--|
|2-2--------2|
|--2---------|
|------------|
|------------|

And there is pretty much the whole song. Listen to it for timing. This is one of the 
Staind songs, in my opinion. Enjoy.