Staind - Devil Chords & Tabs

 

Devil Chords & Tabs

Staind Chords & Tabs

Version: 1 Type: Tab 0 ratings
1 star 2 stars 3 stars 4 stars 5 stars
comments

Devil Tab

   
This is just the part Aaron Lewis is playing during pretty much the whole song.  And of
course as with all of his songs he is half a step down
(Eb Ab Db Gb Bb Eb).

Intro/Verse/Outro
| -----------0----0----0-----0-----0----0-----0----0-----0----0-----|
|*-----------0-----0---0------0----0-----0----0-----0----0-------0--|
| -----------7---------10----------9----------7----------7----------|
| -----------7---------9-----------9----------7----------7----------|
|*-----------0---------0-----------0----------0----------0----------|
| -----------x---------x-----------x----------x----------x----------|

[ Tab from: http://www.guitartabs.cc/tabs/s/staind/devil_tab.html ]
|-----------0----0------------0----0-----0----0-----0----0-----0----0---- |
|-----------0-----0-----------0-----0----0-----0----0-----0----0-------0-*|
|-----------5----------4-5-4--2------2---2------2---2------2---2--------- |
|-----------5-----------------2----------2----------2----------2--------- |
|-----------0-----------------x----------x----------x----------x---------*|
|-----------x-----------------x----------x----------x----------x--------- |


Chorus:

| -------0----------0---- |
|*-------0----------0----*|
| -------9----------2---- |
| -------9----------2---- |
|*-------0----------0----*|
| -------x----------x---- |

You can figure out the picking pattern yourself, plus I wouldn't know how to tab a
rythm.  Try to throw some just picking of the top two strings open and if you play
with it enough you will get it.  Rate this if you would like.  I would like some
feed back because this is my first and it is actually the first song I've just
listened to and got for myself.  My name is J. T. and it won't show up on the
tab because I am not registered.  If you would like my email addy is
bofus2004@hotmail.com if you have questions or corrections.  I appreciate it and
enjoy guys!!!!  Staind rocks!!
Comments