Staind - Could It Be Chords & Tabs

 

Could It Be Chords & Tabs

Staind Chords & Tabs

Version: 2 Type: Tab 0 ratings
1 star 2 stars 3 stars 4 stars 5 stars
comments

Could It Be Tab

This song is played with stainds normal tunning, I prfer just using a 7 string
for their songs, but 6 tuned low works just as well. And also if you don't wanna
mess with your tunning much just do dropped Db. If anyone has the rest of the
song tabbed out please email me at Math_You_89@hotmail.com
[ Tab from: http://www.guitartabs.cc/tabs/s/staind/could_it_be_tab_ver_2.html ]
Bb|-----------------------------------------------|
Gb|-7--7--7-7-7/12-x-x-12--12--12-12-12-12--12-12-|
Db|-7--7--7-7-7/12-x-x-12--12--12-12-12-12--12-12-|
Ab|-5--5--5-5-5/10-x-x-10--10--10-10-10-10--10-10-|
Db|-5--5--5-5-5/10-x-x-10--10--10-10-10-10--10-10-|
Ab|-----------------------------------------------|

Bb|-----------------------------------|
Gb|-11--11--11-11-9--7--7--7-7-7-7--7-|
Db|-9---9---9--9--9--7--7--7-7-7-7--7-|
Ab|-7---7---7--7--7--5--5--5-5-5-5--5-|
Db|-----------------------------------|
Ab|-----------------------------------|
Comments