Staind - Could It Be Chords & Tabs

 

Could It Be Chords & Tabs

Staind Chords & Tabs

Version: 1 Type: Bass Tab 0 ratings
1 star 2 stars 3 stars 4 stars 5 stars
comments

Could It Be Bass Tab

Band- Staind
Song- Could It Be


Tuning-Standard 5 String(I know Johhny tuens his like Ab,Db,Gb,Bb,Eb or something like 
but I just keep mine in standard tuning)
[ Tab from: http://www.guitartabs.cc/tabs/s/staind/could_it_be_btab.html ]
Intro/Chorus
G-----------------------------------------------------------|
D-----------------------------------------------------------|
A-----------------------------------------------------------|
E--10-10-10-10-10---------------7-7-7-7-7-7-7---------------|
B------------------3-3-3-3-3-3------------------5-5-5-5-5-5-|

Verse
G-----------------------------------------|
D-----------------------------------------|
A------------------------------12----9----|
E-7~----9~-------7~--------9~-----------9-|
B-----------------------------------------|

Bridge
G-------------------------------------|
D-------------------------------------|
A-------------------------------------|
E--3-3-3-3-3-------------4-4-4-4-4-4--|
B-------------2-2-2-2-2---------------|
Comments