Staind - Come Again Chords & Tabs

 

Come Again Chords & Tabs

Staind Chords & Tabs

Version: 1 Type: Tab 0 ratings
1 star 2 stars 3 stars 4 stars 5 stars
comments

Come Again Tab

   
Band- Staind
Song- Come Again

Tuning (Low to high) - Db Ab Db Gb Bb Eb

Key
/ - slide up
\ - slide down
 - harmonic
^ - bend
. - palm mute

Intro/Chorus
|----------------------------------------------------------------------------------------|
|----------------------------------------------------------------------------------------|
|----------------------------------------------------------------------------------------|
|--0---3---6---0-3---6---0-0-0-0---------------------------------------------------------|
|--0---3---6---0-3---6---0-0-0-0---------------------------------------------------------|
|--0---3---6---0-3---6---0-0-0-0---------------------------------------------------------|
                         . . . .

1st part of verse (semi-clean tone)
|----------------------------------------------------------------------------------------|
|----------------------------------------------------------------------------------------|
|--3--10---8/9\8---3--10--12-------------------------------------------------------------|
|--2---9---7/8\7---2---9--11-------------------------------------------------------------|
|----------------------------------------------------------------------------------------|
|----------------------------------------------------------------------------------------|
[ Tab from: http://www.guitartabs.cc/tabs/s/staind/come_again_tab.html ]
2nd part of verse
|----------------------------------------------------------------------------------------|
|----------------------------------------------------------------------------------------|
|----------------------------------------------------------------------------------------|
|--0---6-7------<7>----0-3-6-3-0-0-------------------------------------------------------|
|--0---6-7-<7>---------0-3-6-3-0-0-------------------------------------------------------|
|--0---6-7---------<7>-0-3-6-3-0-0-------------------------------------------------------|
   .   . .             . . . . . .

1st part of bridge (distortion tone)
|----------------------------------------------------------------------------------------|
|----------------------------------------------------------------------------------------|
|----------------------------------------------------------------------------------------|
|--4-----5/6---6\5-0-3-6-3-0-0-----------------------------------------------------------|
|--3-0-0-3/4-0-4\3-0-3-6-3-0-0-----------------------------------------------------------|
|----0-0-----0-----0-3-6-3-0-0-----------------------------------------------------------|
     . .     .     . . . . . .

2nd part of bridge(semi-dirty tone)/3rd part of bridge and outro (distortion tone)
|----------------------------------------------------------------------------------------|
|----------------------------------------------------------------------------------------|
|----------------------------------------------------------------------------------------|
|--5-x-x-x-x-5/6-x-6\5---5---------------------------------------------------------------|
|--3-x-x-x-x-3/4-x-4\3-0-3-0-0-0-0-------------------------------------------------------|
|----------------------0---0-0-0-0-------------------------------------------------------|
Hand mute^             .   . . . .
Comments