Staind - Cant Believe Chords & Tabs

 

Cant Believe Chords & Tabs

Staind Chords & Tabs

Version: 8 Type: Tab 0 ratings
1 star 2 stars 3 stars 4 stars 5 stars
comments

Cant Believe Tab

   
this song is done by staind....most people got the right idea with the intro..chorus...
verse...whateva.  but no one can get the bridge right...so here i am to the rescue...
tuning is drop D tuned down another half step...enjoy!

intro after drum opening/verse = heavy distortion
eb|------------------------------------------------------|
Bb|------------------------------------------------------|
Gb|------------------------------------------------------|
Db|222222-2-------------7777-----------------------------|
Ab|222222-2-slide-down--5555-----------------------------|
Db|222222-2-------------5555-----------------------------|


bridge = clean w/slight delay
eb|------------------------------------------------------|
Bb|-7-----7--8--10--7-----7--8---------------------------|
Gb|---7---------------7----------------------------------|
Db|-----9---------------9--------------------------------|
Ab|------------------------------------------------------|
Db|------------------------------------------------------|
[ Tab from: http://www.guitartabs.cc/tabs/s/staind/cant_believe_tab_ver_8.html ]
verse again for 4 measures then chorus which goes like...
(chorus also in heavy distortion)


eb|------------------------------------------------------|
Bb|------------------------------------------------------|
Gb|------------------------------------------------------|
Db|--4-4-4-4--4------------7-7-7-7--7--------------------|
Ab|--2-2-2-2--2-slide down-5-5-5-5--5slide up------------|
Db|--2-2-2-2--2------------5-5-5-5--5--------------------|

eb|------------------------------------------------------|
Bb|------------------------------------------------------|
Gb|------------------------------------------------------|
Db|--4---------------------------------------------------|
Ab|--6---let-ring----------------------------------------|
Db|--6---------------------------------------------------|


Order of operations..
A.  Intro/verse 4 measures
B.  Bridge
C.  Verse 4 measures
D.  Chorus 4 measures
E.  verse 2 measures with a 2nd guitar effect in backgr.
F.  Bridge
G.  Verse 4 measures
H.  Chorus 4 measures
I.  Bridge 2 times
J.  Verse 4 measures
K.  Chorus 8 measures
L.  Ending
Comments