Staind - Cant Believe Chords & Tabs

 

Cant Believe Chords & Tabs

Staind Chords & Tabs

Version: 5 Type: Tab 0 ratings
1 star 2 stars 3 stars 4 stars 5 stars
comments

Cant Believe Tab

   
#----------------------------------PLEASE NOTE--------------------------------#
#This file is the author's own work and represents their interpretation of the#
#song. You may only use this file for private study, scholarship, or research.#
#-----------------------------------------------------------------------------#
#-- File created with Instab - http://www.pconline.com/~smcarey/instab.html --#
#-----------------------------------------------------------------------------#

Author/Artist: Staind
Title: Cant Beleive
Album: Break the Cycle
Transcribed by: Adam Quigley
Email: IgtChiks@aol.com

All of my Tablature is 100% correct.  A baritone guitar is 
required to play this song as it is with most of staind's music.
Tuning from low to high( Bb Eb Ab Db Gb Bb).

-|------------|----------------------------------|--------------------------|-
-|------------|----------------------------------|--------------------------|-
-|------------|----------------------------------|--------------------------|-
-|------------|--10-----x--x--x--6------6---6----|/10----10--13----13--13---|-
-|------------|---8-----x--x--x--6------8---8----|/11----11--11----11--11---|-
-|------------|---6-----x--x--x--6------6---6----|/9-----9---9-----9---9----|-
   (clean tone with flanger)                                                  
[ Tab from: http://www.guitartabs.cc/tabs/s/staind/cant_believe_tab_ver_5.html ]
-|-----------------------|-------------------------|------------------------|-
-|---12--------8h10------|-12--------13--------15\-|-12-------8h10----------|-
-|------10----------10---|----13-------------------|----10---------10-------|-
-|---------8-----------8-|-------11--------11------|-------8----------8-----|-
-|-----------------------|-------------------------|------------------------|-
-|-----------------------|-------------------------|------------------------|-
                      Interlude  (tremelo pick throughout)                    

-|-----------------||-13---/16--16----13--|-16-----13-13------|-13--/16--16---
-|-12--------13----||---------------------|-------------------|---------------
-|----13-----------||-10---/13--13----10--|-13-----10-10------|-10--/13--13---
-|-------11--------||---------------------|-------------------|---------------
-|-----------------||---------------------|-------------------|---------------
-|-----------------||---------------------|-------------------|---------------
                                                                              

-13---|-16----13--13-||--------------------|-----------------------|----------
------|--------------||-12-------8h10------|-12--------13------15\-|-12-------
-10---|-13----10--10-||----10---------10---|----13-----------------|----10----
------|--------------||-------8----------8-|-------11-------11-----|-------8--
------|--------------||--------------------|-----------------------|----------
------|--------------||--------------------|-----------------------|----------
                                                                              

-----------|------------------||---------------||---------------------------|-
-8h10------|-12--------13-----||---------------||-12--------13--------------|-
------10---|----13------------||---------------||----13---------------------|-
---------8-|-------11---------||---------------||-------11------------------|-
-----------|------------------||---------------||---------------------------|-
-----------|------------------||---------------||---------------------------|-
                                                                              

Comments