Staind - Cant Believe Chords & Tabs

 

Cant Believe Chords & Tabs

Staind Chords & Tabs

Version: 4 Type: Tab 0 ratings
1 star 2 stars 3 stars 4 stars 5 stars
comments

Cant Believe Tab

   
Artist: Staind
Song: Can't Believe
Album: Break the Cycle

This is not 100% correct...but it sounds exactly like it

Tuning: Dropped D
(D-A-D-G-B-E)

*there is a drum intro*

verse
|-------------------------------------------------|
|-------------------------------------------------|
|-0-x-x-x-x-0-x-x-x-x-0-x-x-0-0-0-0-0-0-0-0-0-0-0-|
|-2-x-x-x-x-2-x-x-x-x-2-x-x-5-5-5-5-5-5-5-5-5-5-5-|
|-2-x-x-x-x-2-x-x-x-x-2-x-x-5-5-5-5-5-5-5-5-5-5-5-|
|-0-x-x-x-x-0-x-x-x-x-0-x-x-0-0-0-0-0-0-0-0-0-0-0-|
[ Tab from: http://www.guitartabs.cc/tabs/s/staind/cant_believe_tab_ver_4.html ]
that little fill thing between verses
|-------------------------------------|
|-7p5-3h5---7p5-8-10--7p5-3h5---7p5-8-|
|---------4-------------------4-------|
|-------------------------------------|   (x2)
|-------------------------------------|
|-------------------------------------|

chorus
|-----------------------|
|-----------------------|
|-2-2-2-2-2-2-2/5-5-5-5-|
|-2-2-2-2-2-2-2/5-5-5-5-|
|-2-2-2-2-2-2-2/5-5-5-5-|
|-2-2-2-2-2-2-2/5-5-5-5-|

the solo kinda thing
|-----------------------|
|-0-3-0-3-0---0-3-0-3-0-|
|-----------2-----------|
|-----------------------|
|-----------------------|
|-----------------------|

alright, that's all of the parts...you'll need to listen to the song
to get the timing and order right. Enjoy!
Comments