Staind - Cant Believe Chords & Tabs

 

Cant Believe Chords & Tabs

Staind Chords & Tabs

Version: 2 Type: Tab 0 ratings
1 star 2 stars 3 stars 4 stars 5 stars
comments

Cant Believe Tab

This song is 100% correct.I know it is cuz i have the tab book.The tuning
is from low to high:Bb Eb Ab Db Gb Bb.Email me if you want more staind songs
at Ibanezaxe24@aol.com.

/=slide up
\=slide down
h=hammer on

Moderatley fast=136

 {Riff A}            play four times
---------------------------------------------------------------
---------------------------------------------------------------
---------------------------------------------------------------
---10-----x--x--x--6-----6---8---/10---10--13-----13--13-------
---8------x--x--x--8-----8---8---/11---11--10-----11--11-------
---6------x--x--x--6-----6---6---/-9---9---9------9---9--------

 {Riff B}            clean tone with flanger
-------------------------------------------------------------
--12---------8h10-----------12----------13--------15\--------
------10-----------10-----------13---------------------------
----------8------------8------------11-------11--------------
-------------------------------------------------------------
-------------------------------------------------------------
[ Tab from: http://www.guitartabs.cc/tabs/s/staind/cant_believe_tab_ver_2.html ]
--------------------------------------------------------------
--12---------8h10--------12--------13-hold for two beats------
------10-----------10------13---------------------------------
----------8----------8---------11-----------------------------
--------------------------------------------------------------
--------------------------------------------------------------
    Then play RIFF A four times

  Chorus
Rythm Figure 2==============================|
----------------------------------------------------------------
----------------------------------------------------------------
----------------------------------------------------------------
--------->---------->---6---6--6(6)--6----6-------------->-------
--3---3--3(3)---3---3---4---4--4(4)--4----4-------3---3--3(3)---
--1---1--1(1)---1---1---4---4--4(4)--4----4-------1---1--1(1)---

----------------------------------------------------------------
----------------------------------------------------------------
----------------------------------------------------------------
--6----6---6---6--6(6)--6---6-------->--------------------------
--4----4---4---4--4(4)--4---4----3---3--3(3)--3---3-------------
--4----4---4---4--4(4)--4---4----1---1--1(1)--1---1-------------

--------------------------------------------------------------------
--------------------------------------------------------------------
------------------------------------------------------------------>-
--6---6--6(6)--6---6---------------------------6----6--6(6)--6----6-
--4---4--4(4)--4---4---3-----------------------4----4--3(3)--3----3-
--4---4--4(4)--4---4---1--hold for 4 beats-----4----4--3(3)--3----3-

I got to go,figure out the rest.I'll finish it later.If you want anymore
Staind tabs tabed,email me at Ibanezaxe24@aol.com

Comments