Staind - Cant Believe Chords & Tabs

 

Cant Believe Chords & Tabs

Staind Chords & Tabs

Version: 1 Type: Tab 0 ratings
1 star 2 stars 3 stars 4 stars 5 stars
comments

Cant Believe Tab

   
Band: Staind
Song: Can't Believe
Album: Break the Cycle


tuning: Dropped D
(D-A-D-G-B-E)

This song is extremely awesome!! This is not 100% correct, but it sounds exactly like it.


DRUM INTRO
[ Tab from: http://www.guitartabs.cc/tabs/s/staind/cant_believe_tab.html ]
verse
|---------------------------------------------------|
|---------------------------------------------------|
|-0-x-x-x-x-0-x-x-x-x-0-x-x-0/0-0-0-0-0-0-0-0-0-0-0-|
|-2-x-x-x-x-2-x-x-x-x-2-x-x-2/5-5-5-5-5-5-5-5-5-5-5-|
|-2-x-x-x-x-2-x-x-x-x-2-x-x-2/5-5-5-5-5-5-5-5-5-5-5-|
|-0-x-x-x-x-0-x-x-x-x-0-x-x-0/0-0-0-0-0-0-0-0-0-0-0-|

that little fill thing between verses
|-------------------------------------|
|-7p5-3h5---7p5-8-10-7p5-3h5----7p5-8-|
|---------4------------------4--------|
|-------------------------------------|  (x2)
|-------------------------------------|
|-------------------------------------|

chorus (you'll have to figure out the strumming pattern)
|------------------------|
|------------------------|
|------------------------|
|-2-2-2-2-2-2-2-2/5-5-5--|
|-2-2-2-2-2-2-2-2/5-5-5--|
|-2-2-2-2-2-2-2-2/5-5-5--|


that's the whole song...enjoy
Comments