Staind - Break The Cycle Chords & Tabs

 

Break The Cycle Chords & Tabs

Staind Chords & Tabs

Version: 1 Type: Tab 0 ratings
1 star 2 stars 3 stars 4 stars 5 stars
comments

Break The Cycle Tab

   
Band - Staind
Album - Break The Cycle
-----------------------

01 - Open Your Eyes
02 - Pressure
03 - Fade
04 - It's Been Awhile
05 - Change
06 - Can't Believe
07 - Epiphany
08 - Suffer
09 - Warm Safe Place
10 - For You
11 - Outside
12 - Waste
13 - Take It
14 - Outside (live feat. Fred Durst)

---------------------
 01 - Open Your Eyes
---------------------

Tuning: Bb Gb Db Ab Db Ab
Key:
h    -  hammer on
/    -  slide up
\    -  slide down
Nh   -  natural harmonic
x\\\ -  pick scrape (direction same as slide)


Intro:   (light distortion and flanger)
Bb|-----------------------------------------------|
Gb|-----------------------------------------------|
Db|-12-------11----11-11---12-------11----11-11---|
Ab|-9-----9--9-----9--9--0-0-----0--0-----0--0--0-|
Db|-9-----9--9-----9--9----14----14-14----14-14---|
Ab|-----------------------------------------------|

Bb|-----------------------------------------------|
Gb|-----------------------------------------------|
Db|-12-------11----11-11---12-------11------------|
Ab|-9-----9--9-----9--9--0-0-----0--0-------------|
Db|-9-----9--9-----9--9----14----14-14------------|
Ab|-----------------------------------------------|

		      (distortion)
Bb|-------------------------------------------------------|
Gb|-----------------------4-------------------------4-5---|
Db|---------0-------------------------0-----------------4-|
Ab|---------0-------------------------0-------------------|
Db|-4---4-4-0-4---4---4-4-----4---4-4-0-4---4---4-4-------|
Ab|-0h2-2-2---2---0---2-2-----0h2-2-2---2---0---2-2-------|
  Nh                      .                         . . .

Bb|-------------------------------------------------------|
Gb|-----------------------4-------------------------------|
Db|---------0-------------------------0-------------------|
Ab|---------0-------------------------0-------------------|
Db|-4---4-4-0-4---4---4-4-----4---4-4-0-4---4---4-4-5\4-4-|
Ab|-0h2-2-2---2---0---2-2-----0h2-2-2---2---0---2-2-3\2-2-|
  Nh                      .

Bb|-------------------------------------------------------|
Gb|-----------------------4-------------------------4-5---|
Db|---------0-------------------------0-----------------4-|
Ab|---------0-------------------------0-------------------|
Db|-4---4-4-0-4---4---4-4-----4---4-4-0-4---4---4-4-------|
Ab|-0h2-2-2---2---0---2-2-----0h2-2-2---2---0---2-2-------|
  Nh                      .                         . . .

|-------------------------------------------------------|
|-----------------------4-------------------------------|
|---------0-------------------------0-------------9\----|
|---------0-------------------------0-------------x-----|
|-4---4-4-0-4---4---4-4-----4---4-4-0-4---4---4-4-9\----|
|-0h2-2-2---2---0---2-2-----0h2-2-2---2---0---2-2-------|
  Nh                      .

Verse:     (light distortion and flanger)
Bb|-----------------------------------------------|
Gb|-----------------------------------------------|
Db|-12-------11----11-11---12-------11----11-11---| x8
Ab|-9-----9--9-----9--9--0-0-----0--0-----0--0--0-|
Db|-9-----9--9-----9--9----14----14-14----14-14---|
Ab|-----------------------------------------------|

Chorus:              (distortion)
Bb|---------------------------------------------------|
Gb|---------------------------------------------------|
Db|-----------------------------------12-12-12--12----|
Ab|-----------------------------------10-10-10--10----|
Db|-12----12----14--14-14--9-----9----10-10-10--10----|
Ab|-10----10----12--12-12--7-----7--------------------|

Bb|---------------------------------------------------|
Gb|---------------------------------------------------|
Db|-----------------------------------10-10-10--10----|
Ab|-----------------------------------8--8--8---8-----|
Db|-12----12----14--14-14--9-----9----8--8--8---8-----|
Ab|-10----10----12--12-12--7-----7--------------------|

Bb|---------------------------------------------------|
Gb|---------------------------------------------------|
Db|-------------7---7--7--------------12-12-12--12----|
Ab|-------------7---7--7--------------10-10-10--10----|
Db|-12----12----7---7--7---9-----9----10-10-10--10----|
Ab|-10----10---------------7-----7--------------------|

Bb|---------------------------------------------------|
Gb|---------------------------------------------------|
Db|-------------7---7--7--------------10-10-10--10----|
Ab|-------------7---7--7--------------8--8--8---8-----|
Db|-12----12----7---7--7---9-----9----8--8--8---8-----|
Ab|-10----10---------------7-----7--------------------|

Verse:     (light distortion and flanger)
Bb|-----------------------------------------------|
Gb|-----------------------------------------------|
Db|-12-------11----11-11---12-------11----11-11---| x8
Ab|-9-----9--9-----9--9--0-0-----0--0-----0--0--0-|
Db|-9-----9--9-----9--9----14----14-14----14-14---|
Ab|-----------------------------------------------|

Chorus:              (distortion)
Bb|---------------------------------------------------|
Gb|---------------------------------------------------|
Db|-----------------------------------12-12-12--12----|
Ab|-----------------------------------10-10-10--10----|
Db|-12----12----14--14-14--9-----9----10-10-10--10----|
Ab|-10----10----12--12-12--7-----7--------------------|

Bb|---------------------------------------------------|
Gb|---------------------------------------------------|
Db|-----------------------------------10-10-10--10----|
Ab|-----------------------------------8--8--8---8-----|
Db|-12----12----14--14-14--9-----9----8--8--8---8-----|
Ab|-10----10----12--12-12--7-----7--------------------|

Bb|---------------------------------------------------|
Gb|---------------------------------------------------|
Db|-------------7---7--7--------------12-12-12--12----|
Ab|-------------7---7--7--------------10-10-10--10----|
Db|-12----12----7---7--7---9-----9----10-10-10--10----|
Ab|-10----10---------------7-----7--------------------|

Bb|---------------------------------------------------|
Gb|---------------------------------------------------|
Db|-------------7---7--7--------------10-10-10--10----|
Ab|-------------7---7--7--------------8--8--8---8-----|
Db|-12----12----7---7--7---9-----9----8--8--8---8-----|
Ab|-10----10---------------7-----7--------------------|

Bridge:
Bb|-------------------------------------|
Gb|-------0-----------------0------0----|
Db|-16--------16---16-12--------12---12-| x6
Ab|-0------------0----10----------------|
Db|-0-----------------0-----------------|
Ab|-------------------10----------------|

Verse:     (light distortion and flanger)
Bb|-----------------------------------------------|
Gb|-----------------------------------------------|
Db|-12-------11----11-11---12-------11----11-11---| x4
Ab|-9-----9--9-----9--9--0-0-----0--0-----0--0--0-|
Db|-9-----9--9-----9--9----14----14-14----14-14---|
Ab|-----------------------------------------------|

Chorus 3:
Bb|---------------------------------------------------|
Gb|---------------------------------------------------|
Db|-------------7---7--7--------------12-12-12--12----|
Ab|-------------7---7--7--------------10-10-10--10----|
Db|-12----12----7---7--7---9-----9----10-10-10--10----|
Ab|-10----10---------------7-----7--------------------|

Bb|---------------------------------------------------|
Gb|---------------------------------------------------|
Db|-------------7---7--7--------------10-10-10--10----|
Ab|-------------7---7--7--------------8--8--8---8-----|
Db|-12----12----7---7--7---9-----9----8--8--8---8-----|
Ab|-10----10---------------7-----7--------------------|

Bb|---------------------------------------------------|
Gb|---------------------------------------------------|
Db|-------------7---7--7--------------12-12-12--12----|
Ab|-------------7---7--7--------------10-10-10--10----|
Db|-12----12----7---7--7---9-----9----10-10-10--10----|
Ab|-10----10---------------7-----7--------------------|

Bb|---------------------------------------------------|
Gb|---------------------------------------------------|
Db|-------------7---7--7------------------------------|
Ab|-------------7---7--7----------------9------10-----|
Db|-12----12----7---7--7---9-----9----9-9-9-10-10-10--|
Ab|-10----10---------------7-----7----7---7-8-----8---|

Outro:
Bb|-------------------------------------------------------|
Gb|-----------------------4-------------------------4-5---|
Db|---------0-------------------------0-----------------4-| x2
Ab|---------0-------------------------0-------------------|
Db|-4---4-4-0-4---4---4-4-----4---4-4-0-4---4---4-4-------|
Ab|-0h2-2-2---2---0---2-2-----0h2-2-2---2---0---2-2-------|
  Nh                      .                         . . .

---------------
 02 - Pressure
---------------

Tuning: Bb Gb Db Ab Db Ab

Intro: x2
Bb|-----------------------------------------------------------------|
Gb|-----------------------------------------------------------------|
Db|----------6---------------6---------------6----------------------|
Ab|------------------------------6---------------------------7---6--|
Db|--6---6-------6-6---6-6-6-----7---6---6-------6-6---6-6-6-----7--|
Ab|--4---4-------4-4---4-4-4-----5---4---4-------4-4---4-4-4-----5--|

Bb|-----------------------------------------------------------------|
Gb|-----------------------------------------------------------------|
Db|----------6---------------6---------------6----------------------|
Ab|------------------------------6---------------------------6------|
Db|--6---6-------6-6---6-6-6-----7---6---6-------6-6---6-6-6-7------|
Ab|--4---4-------4-4---4-4-4-----5---4---4-------4-4---4-4-4--------|

Verse:
Bb|-------------|
Gb|--11---------|
Db|--14--p--13--|
Ab|-------------| x2
Db|-------------|
Ab|-------------|

Prechorus:
Bb|-----------------------------------------------------------------|
Gb|-----------------------------------------------------------------|
Db|----------6---------------6---------------6----------------------| 
Ab|----------------------------------------------------------7------| x3
Db|--6---6-------6-6---6-6-6-----6-6-6---6-------6-6---6-6-6-----7--|
Ab|--4---4-------4-4---4-4-4-----4-4-4---4-------4-4---4-4-4-----5--|

Bb|----------------------------------------------7------------------|
Gb|----------------------------------------------8------------------|
Db|----------6---------------6---------------6----------------------|
Ab|----------------------------------------------6------------------|
Db|--6---6-------6-6---6-6-6-----6-6-6---6-6-----7------------------|
Ab|--4---4-------4-4---4-4-4-----4-4-4---4-4------------------------|

Chorus:
|-------------------------------------------------|
|-------------------------------------------------|
|-4--4--0--0--------------4--4--0--0----------5-2-|
|-4--4--0--0--2--2--2--2--4--4--0--0-2--2--2--5-2-| x2
|-4--4--0--0--4--4--4--4--4--4--0--0-4--4--4--5-2-|
|-------------2--2--2--2-------------2--2--2------|

Verse:
Bb|-------------|
Gb|--11---------|
Db|--14--p--13--|
Ab|-------------| x2
Db|-------------|
Ab|-------------|

Prechorus:
Bb|-----------------------------------------------------------------|
Gb|-----------------------------------------------------------------|
Db|----------6---------------6---------------6----------------------| 
Ab|----------------------------------------------------------7------| x3
Db|--6---6-------6-6---6-6-6-----6-6-6---6-------6-6---6-6-6-----7--|
Ab|--4---4-------4-4---4-4-4-----4-4-4---4-------4-4---4-4-4-----5--|

Bb|----------------------------------------------7------------------|
Gb|----------------------------------------------8------------------|
Db|----------6---------------6---------------6----------------------|
Ab|----------------------------------------------6------------------|
Db|--6---6-------6-6---6-6-6-----6-6-6---6-6-----7------------------|
Ab|--4---4-------4-4---4-4-4-----4-4-4---4-4------------------------|

Chorus:
Bb|-------------------------------------------------|
Gb|-------------------------------------------------|
Db|-4--4--0--0--------------4--4--0--0----------5-2-|
Ab|-4--4--0--0--2--2--2--2--4--4--0--0-2--2--2--5-2-| x2
Db|-4--4--0--0--4--4--4--4--4--4--0--0-4--4--4--5-2-|
Ab|-------------2--2--2--2-------------2--2--2------|

Interlude:
Bb|---------------------------------|
Gb|-6---6-6-6---6-6-6-6-6-6-6-6-6-6-|
Db|-4---4-4-4---4-4-4-4-4-4-4-4-4-4-| x2
Ab|-4h5-5-5-5p4-4-4-4-4-4-4-4-4-4-4-|
Db|---------------------------------|
Ab|---------------------------------|

Bridge:
Bb|-------------------------------------------|
Gb|-------------------------------------------|
Db|-------------------------------------------| x4
Ab|-----------------------------7--7-7--7-7-0-|
Db|-----4-4-----4-4-4-------4-6-6--6-6--6-6-0-|
Ab|-5p4-4-4-5p4-4-4-4p0-5p4-4-7-7--7-7--7-7---|

Chorus:
Bb|-------------------------------------------------|
Gb|-------------------------------------------------|
Db|-4--4--0--0--------------4--4--0--0----------5-2-|
Ab|-4--4--0--0--2--2--2--2--4--4--0--0-2--2--2--5-2-| x2
Db|-4--4--0--0--4--4--4--4--4--4--0--0-4--4--4--5-2-|
Ab|-------------2--2--2--2-------------2--2--2------|

Outro:
Bb|-----------------------------------------------------------------|
Gb|-----------------------------------------------------------------|
Db|----------6---------------6---------------6----------------------|
Ab|------------------------------6---------------------------7---6--|
Db|--6---6-------6-6---6-6-6-----7---6---6-------6-6---6-6-6-----7--|
Ab|--4---4-------4-4---4-4-4-----5---4---4-------4-4---4-4-4-----5--|

Bb|-----------------------------------------------------------------|
Gb|-----------------------------------------------------------------|
Db|----------6---------------6---------------6----------------------|
Ab|------------------------------6---4---4-4-----6------------------|
Db|--6---6-------6-6---6-6-6-----7---6---6-6-----7------------------|
Ab|--4---4-------4-4---4-4-4-----5---4---4-4------------------------|

-----------
 03 - Fade
-----------

Tuning: Bb Gb Db Ab Db Ab

Intro: (Guitar 1)
Bb|-0--0--0--0-|
Gb|-0--0--0--0-|
Db|-9--9--9--9-|
Ab|-7--7--7--7-|
Db|-0--0--0--0-|
Ab|-7--7--7--7-|

  		     (Guitar 1)
Bb|-------------------------------------------------|
Gb|-------------------------------------------------|
Db|-------------------------------------------------| x4
Ab|-------------------------------------------------|
Db|-5-h-7----7--7-p-5-5--5---5\3-----5--3h5---5--0--|
Ab|-7--------7--7-----7--7---5\3-----5--3h5---5--0--|

		     (Guitar 2)
Bb|-------------------------------------------------|
Gb|-11/12-12-12-12/14-14-14-14\12-12\11-11\9--9--11-|
Db|-x-----x--x--x-----x--x--x-----x-----x-----x--x--|
Ab|-9-/10-10-10-10/12-12-12-12\10-10\9--9-\7--7--9--|
Db|-------------------------------------------------|
Ab|-------------------------------------------------|

Bb|-------------------------------------------------|
Gb|-11/12-12-12-12/14-14-14-14\12-12/16-16\14-14\12-|
Db|-x-----x--x--x-----x--x--x-----x-----x-----x-----|
Ab|-9-/10-10-10-10/12-12-12-12\10-10/14-14\12-12\10-|
Db|-------------------------------------------------|
Ab|-------------------------------------------------|

Bb|-------------------------------------------------|
Gb|-11/12-12-12-12/14-14-14-14\12-12\11-11\9--9--11-|
Db|-x-----x--x--x-----x--x--x-----x-----x-----x--x--| x2
Ab|-9-/10-10-10-10/12-12-12-12\10-10\9--9-\7--7--9--|
Db|-------------------------------------------------|
Ab|-------------------------------------------------|

Verse: (Guitar 1)
Bb|-0--0--0--0-|
Gb|-0--0--0--0-|
Db|-9--9--9--9-|
Ab|-7--7--7--7-|
Db|-0--0--0--0-|
Ab|-7--7--7--7-|

(Guitar 2)
Bb|---|
Gb|-5-|
Db|---|
Ab|---|
Db|---|
Ab|---|
  Nh.

Prechorus:	(Guitar 1)
Bb|--------------------------------|
Gb|--------------------------------|
Db|--------------------------------| x3
Ab|-------------0------------------|
Db|----0---7---------2-------------|
Ab|-7----7----7----0---5-2/5-0-4/5-|

Bb|--------------------------------|
Gb|------------------------------2-|
Db|------------------------------0-|
Ab|-------------0----------------0-|
Db|----0---7-----------------------|
Ab|-7----7----7--------------------|

Chorus:			(Guitar 1)
Bb|-------------------------------------------------|
Gb|-------------------------------------------------|
Db|-------------12----------------------------12----|
Ab|-12----12-------------14----14-------12-12-------|
Db|-10----10----------10----------10-10-10----------|
Ab|-10-------10-------10----------10----10----------|

			(Guitar 2)
Bb|-------------------------------------------------|
Gb|-11/12-12-12-11/12-12-11---/12-12-12-11/12-12-12-|
Db|-x-----x--x--x-----x--x-----x--x--x--x-----x--x--|
Ab|-9-/10-10-10-9-/10-10-9----/10-10-10-9-/10-10-10-|
Db|-------------------------------------------------|
Ab|-------------------------------------------------|

			(Guitar 1)
Bb|----------------------------------------------|
Gb|----------------------------------------------|
Db|----------------------------------------------|
Ab|-15----15----15-15---/17----17-17-17--------\-|
Db|-13----13----13-13-13/15----15-15-15--------\-|
Ab|-12----12----12----12/14----14-14-14--------\-|

			(Guitar 2)
Bb|----------------------------------------------|
Gb|-14\12----12-14\12-12-14-------12-12-12-12-12-|
Db|-x--------x--x-----x--x--------x--x--x--x--x--|
Ab|-12\10----10-12\10-10-12-------10-10-10-10-10-|
Db|----------------------------------------------|
Ab|----------------------------------------------|

			(Guitar 1)
Bb|-------------------------------------------------|
Gb|-------------------------------------------------|
Db|-------------12----------------------------12----|
Ab|-12----12-------------14----14-------12-12-------|
Db|-10----10----------10----------10-10-10----------|
Ab|-10-------10-------10----------10----10----------|

			(Guitar 2)
Bb|-------------------------------------------------|
Gb|-11/12-12-12-11/12-12-11---/12-12-12-11/12-12-12-|
Db|-x-----x--x--x-----x--x-----x--x--x--x-----x--x--|
Ab|-9-/10-10-10-9-/10-10-9----/10-10-10-9-/10-10-10-|
Db|-------------------------------------------------|
Ab|-------------------------------------------------|

			(Guitar 1)
Bb|----------------------------------------------|
Gb|----------------------------------------------|
Db|----------------------------------------------|
Ab|-8-----8-----8--8--8--12---12--12-12----12----|
Db|-8-----8-----8--8--8--10---10-----10----10----|
Ab|-8-----8-----8--8--8--9----9------9-----9-----|

			(Guitar 2)
Bb|----------------------------------------------|
Gb|-14\12----12-14\12-12-14-------12-16\14-12-11-|
Db|-x--------x--x-----x--x--------x--x-----x--x--|
Ab|-12\10----10-12\10-10-12-------10-14\12-10-9--|
Db|----------------------------------------------|
Ab|----------------------------------------------|

Interlude:
(Guitar 1)
Bb|----|
Gb|-12-|
Db|-x--|
Ab|-10-|
Db|----|
Ab|----|

Verse: (Guitar 1)
Bb|-0--0--0--0-|
Gb|-0--0--0--0-|
Db|-9--9--9--9-|
Ab|-7--7--7--7-|
Db|-0--0--0--0-|
Ab|-7--7--7--7-|

(Guitar 2)
Bb|---|
Gb|-5-|
Db|---|
Ab|---|
Db|---|
Ab|---|
  Nh.

Prechorus:	(Guitar 1)
Bb|--------------------------------|
Gb|--------------------------------|
Db|--------------------------------| x3
Ab|-------------0------------------|
Db|----0---7---------2-------------|
Ab|-7----7----7----0---5-2/5-0-4/5-|

Bb|--------------------------------|
Gb|------------------------------2-|
Db|------------------------------0-|
Ab|-------------0----------------0-|
Db|----0---7-----------------------|
Ab|-7----7----7--------------------|

Chorus:			(Guitar 1)
Bb|-------------------------------------------------|
Gb|-------------------------------------------------|
Db|-------------12----------------------------12----|
Ab|-12----12-------------14----14-------12-12-------|
Db|-10----10----------10----------10-10-10----------|
Ab|-10-------10-------10----------10----10----------|

			(Guitar 2)
Bb|-------------------------------------------------|
Gb|-11/12-12-12-11/12-12-11---/12-12-12-11/12-12-12-|
Db|-x-----x--x--x-----x--x-----x--x--x--x-----x--x--|
Ab|-9-/10-10-10-9-/10-10-9----/10-10-10-9-/10-10-10-|
Db|-------------------------------------------------|
Ab|-------------------------------------------------|

			(Guitar 1)
Bb|----------------------------------------------|
Gb|----------------------------------------------|
Db|----------------------------------------------|
Ab|-15----15----15-15---/17----17-17-17--------\-|
Db|-13----13----13-13-13/15----15-15-15--------\-|
Ab|-12----12----12----12/14----14-14-14--------\-|

			(Guitar 2)
Bb|----------------------------------------------|
Gb|-14\12----12-14\12-12-14-------12-12-12-12-12-|
Db|-x--------x--x-----x--x--------x--x--x--x--x--|
Ab|-12\10----10-12\10-10-12-------10-10-10-10-10-|
Db|----------------------------------------------|
Ab|----------------------------------------------|

			(Guitar 1)
Bb|-------------------------------------------------|
Gb|-------------------------------------------------|
Db|-------------12----------------------------12----|
Ab|-12----12-------------14----14-------12-12-------|
Db|-10----10----------10----------10-10-10----------|
Ab|-10-------10-------10----------10----10----------|

			(Guitar 2)
Bb|-------------------------------------------------|
Gb|-11/12-12-12-11/12-12-11---/12-12-12-11/12-12-12-|
Db|-x-----x--x--x-----x--x-----x--x--x--x-----x--x--|
Ab|-9-/10-10-10-9-/10-10-9----/10-10-10-9-/10-10-10-|
Db|-------------------------------------------------|
Ab|-------------------------------------------------|

			(Guitar 1)
Bb|----------------------------------------------|
Gb|----------------------------------------------|
Db|----------------------------------------------|
Ab|-8-----8-----8--8--8--12---12--12-12----12----|
Db|-8-----8-----8--8--8--10---10-----10----10----|
Ab|-8-----8-----8--8--8--9----9------9-----9-----|

			(Guitar 2)
Bb|----------------------------------------------|
Gb|-14\12----12-14\12-12-14-------12-16\14-12-11-|
Db|-x--------x--x-----x--x--------x--x-----x--x--|
Ab|-12\10----10-12\10-10-12-------10-14\12-10-9--|
Db|----------------------------------------------|
Ab|----------------------------------------------|

Bridge:
Bb|----------------------------------|
Gb|----------------------------------|
Db|---------12-----------------------| x3
Ab|---7-----10------5----------------|
Db|---7-----10------5--------5-5-4/5-|
Ab|-7-----7-10---10-5----5-0-5-5-4/5-|

Bb|----------------------------------|
Gb|----------------------------------|
Db|---------12-----------------------|
Ab|---7-----10------5----------------|
Db|---7-----10------5----------------|
Ab|-7-----7-10---10-5--------------9-|

Outro: (Guitar 1)
Bb|-0--0--0--0-|
Gb|-0--0--0--0-|
Db|-9--9--9--9-|
Ab|-7--7--7--7-|
Db|-0--0--0--0-|
Ab|-7--7--7--7-|

(Guitar 2)
Bb|---|
Gb|-5-|
Db|---|
Ab|---|
Db|---|
Ab|---|

-----------------------
 04 - It's Been Awhile
-----------------------

Tuning: (Guitar 1) - Electric Bb Gb Db Ab Db Ab
	(Guitar 2) - Acoustic eb Bb Gb Db Ab eb
	(Guitar 3) - Electric Bb Gb Db Ab Db Ab

Intro:				(Guitar 1)
Bb|--------------------------------------------------------------|
Gb|---------------------0--------------0---0------------7p5------|
Db|----12---14p12-----9-----10p9-----4---4---4-------5------5----|
Ab|---------------0---10---------10\-5---------5---7---7------7--|
Db|--14---14--------0-10--10---------5-----------0---------------|
Ab|--0----0------------------------------------------------------|

			(Guitar 2)
eb|----------------------------------------------------------|
Bb|-------3-------------3------------3-----------3-----------|
Gb|---2------2---0---0----0-0-0--------0---0----0---2--0-----|
Db|-----2------2-0----------0-0--0-------0---0------------0--|
Ab|--0-------------3---3---------x---------------------------|
Eb|------------------------------3--3------------------------|

Verse:				(Guitar 1)
Bb|--------------------------------------------------------------|
Gb|---------------------0--------------0---0------------7p5------|
Db|----12---14p12-----9-----10p9-----4---4---4-------5------5----| 
Ab|---------------0---10---------10\-5---------5---7---7------7--| x4
Db|--14---14--------0-10--10---------5-----------0---------------|
Ab|--0----0------------------------------------------------------|

			(Guitar 2)
eb|----------------------------------------------------------|
Bb|-------3-------------3------------3-----------3-----------|
Gb|---2------2---0---0----0-0-0--------0---0----0---2--0-----|
Db|-----2------2-0----------0-0--0-------0---0------------0--| x4
Ab|--0-------------3---3---------x---------------------------|
Eb|------------------------------3--3------------------------|


			(Guitar 3)
Bb|--------------------------------------------------------|
Gb|--9---11h12------11h12----11h12--11h12p11--11h12p11/9---|
Db|--------------------------------------------------------|
Ab|--------------------------------------------------------|
Db|--------------------------------------------------------|
Ab|--------------------------------------------------------|

Chorus:			(Guitar 3)
Bb|--------------------------------------------------------|
Gb|--9---9/12---\5----5--/7---7---x-5-5\4--4/5--5/---------|
Db|--x---x------\x----x--/x---x---x-x-x-x--x/x--x/---------|
Ab|--7---7/10---\3----3--/5---5---x-3-3\2--2/3--3/---------|
Db|--------------------------------------------------------|
Ab|--------------------------------------------------------|

			(Guitar 1)
Bb|--------------------------------------------------------|
Gb|--------------------------------------------------------|
Db|--------------------------------------------------------|
Ab|-------------------------5---5---0-0----0-12-12-0-------|
Db|--14----14--\0--5---5--0-5---5---0-0----0-12-12-0-------|
Ab|--12----12--\0--3---3--0------------------------0-------|

			(Guitar 2)
    Am          C           G5              D
eb|-0---0--0-0--0---0--0-0--3---3-3--3-3--x-2--2---2-2-2-2-|
Bb|-1---1--1-1--1---1--1-1--3---3-3--3-3--x-3--3---3-3-3-3-|
Gb|-2---2--2-2--0---0--0-0--0---0-0--0-0--x-2--2---2-2-2-2-|
Db|-2---2--2-2--2---2--2-2--0---0-0--0-0--x-0--0---0-0-0-0-|
Ab|-0---0--0-0--3---3--3-3--x---x-x--x-x--x----------------|
Eb|-------------------------3---3-3--3-3--x----------------|

On the Second Chorus it Leads into the bridge like this:

			(Guitar 3)
Bb|---------------------------------------------------------|
Gb|--7------7---------5--5\-4--4/-5---5---------------------|
Db|--x------x---------x--x-----x------x---------------------|
Ab|--5------5---------3--3\-2--2/-3---3---------------------|
Db|---------------------------------------------------------|
Ab|---------------------------------------------------------|

			(Guitar 1)
Bb|---------------------------------------------------------|
Gb|---------------------------------------------------------|
Db|---------------------------------------------------------|
Ab|--5-------5----------x-0--0-----0-------0----------------|
Db|--5-------5----------x-0--0-----0-------0----------------|
Ab|---------------------------------------------------------|

			(Guitar 2)
    G5                  D
eb|-3----3---3---3----3-2--2-2--2-2-2-2---------------------|
Bb|-3-------------------3--3-3--3-3-3-3---------------------|
Gb|-0-------------------2--2-2--2-2-2-2---------------------|
Db|-0-------------------0--0-0--0-0-0-0---------------------|
Ab|-x-------------------------------------------------------|
Eb|-3-------------------------------------------------------|

Bridge:			(Guitar 1)
Bb|---------------------------------------------------------|
Gb|--12---9/12-12\-9--7----7/9-9\-7--5----(2)---------------|
Db|--x----x-x--x---x--x----x---x-----x----(x)---------------|
Ab|--10---7-10-10--7--5----5/7-7\-5--3----(0)---------------|
Db|---------------------------------------------------------|
Ab|---------------------------------------------------------|

			(Guitar 3)
Bb|--------------------------------------0------0-------------|
Gb|----------------------------------------5------5--0--------|
Db|---------7--------------2-----------------7---------4------|
Ab|--5---5--5----0--0----0-0------7---7-----------------------|
Db|--5---5--5----0--0----0-0---0--7---7-----------------------|
Ab|--------------0-------------0--0---0-----------------------|

			(Guitar 2)
    G5    D        Am    
eb|-3-3-3-3--3-3-2-2--2--2-2-0-0-0-0-0-0-0-0-0--0-0-0-0-------|
Bb|-3-3-3-3--3-3-3-3--3--3-3-1-1-1-1-1-1-1-1-1--1-1-1-1-------|
Gb|-0-0-0-0--0-0-2-2--2--2-2-2-2-2-2-2-2-2-2-2--2-2-2-2-------|
Db|-0-0-0-0--0-0-0-0--0--0-0-2-2-2-2-2-2-2-2-2--2-2-2-2-------|
Ab|-x-x-x-x--x-x-------------0-0-0-0-0-0-0-0-0--0-0-0-0-------|
Eb|-3-3-3-3--3-3----------------------------------------------|

On the fourth time after you finsih the last part play this:

(Guitar 1)
Bb|-------|
Gb|--5\2--|
Db|--x-x--|
Ab|--3\0--|
Db|-------|
Ab|-------|

(Guitar 3)
Bb|-------|
Gb|-------|
Db|-------|
Ab|---7---|
Db|---7---|
Ab|---0---|

(Guitar 2)
eb|---0---|
Bb|---1---|
Gb|---2---|
Db|---2---|
Ab|---0---|
Eb|-------|

Outro:
			(Guitar 1)
Bb|--------------------------------------------------------------|
Gb|---------------------0--------------0---0------------7p5------|
Db|----12---14p12-----9-----10p9------4---4---4-------5------5---|
Ab|---------------0---10---------10---5---------5---7---7------7-|
Db|--14---14--------0-10--10-------10-5-----------0--------------|
Ab|--0----0------------------------------------------------------|

Bb|-------------------------------------|
Gb|---------------------0---------------|
Db|----12---14p12-----9-----10p9-----4--|
Ab|---------------0---10---------10\--5-|
Db|--14---14--------0-10--10---------5--|
Ab|--0----0-----------------------------|

			(Guitar 2)
eb|--------------------------------------------------------|
Bb|------3-------------3-----------0----------3------------|
Gb|--2------2---0---0----0-0-0-------0---0---0--2-0----2---|
Db|----2------2-0----------0-0---0-----0---0--------0----2-|
Ab|-0-------------3---3-------------------------------0----|
Eb|----------------------------3---------------------------|

eb|----------------------------|
Bb|-3----------------3------3--|
Gb|-----2---0---0------0-0--0--|
Db|-------2-0------------0--0--|
Ab|-----------3---3---------x--|
Eb|-------------------------3--|

-------------
 05 - Change
-------------

Tuning: Bb Gb Db Ab Db Ab

Intro:
Bb|--------------------------------------------------|
Gb|--------------------------------------------------|
Db|--------------------------------------------------| x2
Ab|-12-12-12-12-14-10-------12-12-12-12-14-10---0--3-|
Db|-12-12-12-12-12-10-------12-12-12-12-12-10---0--3-|
Ab|-12-12-12-12-12-10-------12-12-12-12-12-10--------|

Verse: (x4)
Bb|-------------------------------------------|
Gb|----10-------------------------------------|
Db|-12----0-14---14------10-10---12---12------|
Ab|-12------10------10---7-----0-10------10---|
Db|-12-----------------0-7-------10---------0-|
Ab|-------------------------------------------|

Bb|-------------------------------------------|
Gb|----10--------------------------0----0-----|
Db|-12----0-14---14------10--------0------0---|
Ab|-12------10------10---7---------3----------|
Db|-12-----------------0-7-------0-3--------0-|
Ab|-------------------------------------------|

Last time play this:
Bb|-------------------------------------------|
Gb|----10-------------------------------------|
Db|-12----0-14---14------10-10---12---12------|
Ab|-12------10------10---7-----0-10------10---|
Db|-12-----------------0-7-------10---------0-|
Ab|-------------------------------------------|

Bb|--------------------------------------|
Gb|----10--------------------------------|
Db|-12----0-14---14----------------------|
Ab|-12------10------10---7-7-7-7-7-7-7-7-|
Db|-12-----------------0-7-7-7-7-7-7-7-7-|
Ab|--------------------------------------|

Chorus:
Bb|-----------------------------------------------|
Gb|-----------------------------------------------|
Db|-------------------------------3-------3-----3-| 
Ab|-10\---5---5-5-5-5-5-5-5-------3-------3-----3-| x4
Db|-10\---5---5-5-5-5-5-5-5---7---3---7---3---7-3-|
Ab|-10\-----------------------5-------5-------5---|

Verse: (x4)
Bb|-------------------------------------------|
Gb|----10-------------------------------------|
Db|-12----0-14---14------10-10---12---12------|
Ab|-12------10------10---7-----0-10------10---|
Db|-12-----------------0-7-------10---------0-|
Ab|-------------------------------------------|

Bb|-------------------------------------------|
Gb|----10--------------------------0----0-----|
Db|-12----0-14---14------10--------0------0---|
Ab|-12------10------10---7---------3----------|
Db|-12-----------------0-7-------0-3--------0-|
Ab|-------------------------------------------|

Last time play this:
Bb|-------------------------------------------|
Gb|----10-------------------------------------|
Db|-12----0-14---14------10-10---12---12------|
Ab|-12------10------10---7-----0-10------10---|
Db|-12-----------------0-7-------10---------0-|
Ab|-------------------------------------------|

Bb|--------------------------------------|
Gb|----10--------------------------------|
Db|-12----0-14---14----------------------|
Ab|-12------10------10---7-7-7-7-7-7-7-7-|
Db|-12-----------------0-7-7-7-7-7-7-7-7-|
Ab|--------------------------------------|

Chorus:
Bb|-----------------------------------------------|
Gb|-----------------------------------------------|
Db|-------------------------------3-------3-----3-| 
Ab|-10\---5---5-5-5-5-5-5-5-------3-------3-----3-| x4
Db|-10\---5---5-5-5-5-5-5-5---7---3---7---3---7-3-|
Ab|-10\-----------------------5-------5-------5---|

Interlude 1: same as intro

Bridge:
Bb|---------------------------------|
Gb|-----------------------------0---|
Db|---------------0-0-----------0---| x4
Ab|-0-h-2---0---0-0-0-h-2-0---0-3---|
Db|-0-h-2---0---0-0-0-h-2-0-5-0-3---|
Ab|-------------------------3-------|

Interlude:
Bb|--------------------------------------------------|
Gb|--------------------------------------------------|
Db|--------------------------------------------------| x2
Ab|-12-12-12-12-14-10-------12-12-12-12-14-10---0--3-|
Db|-12-12-12-12-12-10-------12-12-12-12-12-10---0--3-|
Ab|-12-12-12-12-12-10-------12-12-12-12-12-10--------|

Verse:
Bb|-------------------------------------------|
Gb|----10-------------------------------------|
Db|-12----0-14---14------10-10---12---12------|
Ab|-12------10------10---7-----0-10------10---|
Db|-12-----------------0-7-------10---------0-|
Ab|-------------------------------------------|

Bb|-------------------------------------------|
Gb|----10--------------------------0----0-----|
Db|-12----0-14---14------10--------0------0---|
Ab|-12------10------10---7---------3----------|
Db|-12-----------------0-7-------0-3--------0-|
Ab|-------------------------------------------|

Bb|-------------------------------------------|
Gb|----10-------------------------------------|
Db|-12----0-14---14------10-10---12---12------|
Ab|-12------10------10---7-----0-10------10---|
Db|-12-----------------0-7-------10---------0-|
Ab|-------------------------------------------|

Bb|--------------------------------------|
Gb|----10--------------------------------|
Db|-12----0-14---14----------------------|
Ab|-12------10------10---7-7-7-7-7-7-7-7-|
Db|-12-----------------0-7-7-7-7-7-7-7-7-|
Ab|--------------------------------------|

Chorus:
Bb|-----------------------------------------------|
Gb|-----------------------------------------------|
Db|-------------------------------3-------3-----3-| 
Ab|-10\---5---5-5-5-5-5-5-5-------3-------3-----3-| x4
Db|-10\---5---5-5-5-5-5-5-5---7---3---7---3---7-3-|
Ab|-10\-----------------------5-------5-------5---|

--------------------
 06 - Can't Believe
--------------------

Tuning: Bb Gb Db Ab eb Bb


Intro:
Bb|-------------------------------------|
Gb|-------------------------------------|
Db|-------------------------------------| x4
Ab|-10--x-x-x-6-8-8--/10--10--13--13-13-|
Eb|-8---x-x-x-8-8-8--/11--11--11--11-11-|
Bb|-6---x-x-x-6-6-6--/9---9---9---9--9--|

Bb|---------------------------------------------------------------------|
Gb|-12------8h10------12-------13----15\--12------8h10------12-------13-|
Db|----10--------10------13------------------10--------10------13-------|
Ab|-------8---------8-------11----11------------8---------8-------11----|
Eb|---------------------------------------------------------------------|
Bb|---------------------------------------------------------------------|

Verse:
Bb|-------------------------------------|
Gb|-------------------------------------|
Db|-------------------------------------| x4
Ab|-10--x-x-x-6-8-8--/10--10--13--13-13-|
Eb|-8---x-x-x-8-8-8--/11--11--11--11-11-|
Bb|-6---x-x-x-6-6-6--/9---9---9---9--9--|

Chorus:
Bb|------------------------------------------------------------|
Gb|------------------------------------------------------------|
Db|------------------------------------------------------------|
Ab|----------------6--6-6-6-6--6-----------------6--6-6-6-6--6-|
Eb|-3--3-3-3-3--3--4--4-4-4-4--4--3--3-3-3-3--3--4--4-4-4-4--4-|
Bb|-1--1-1-1-1--1--4--4-4-4-4--4--1--1-1-1-1--1--4--4-4-4-4--4-|

Bb|------------------------------------------------------------|
Gb|------------------------------------------------------------|
Db|------------------------------------------------------------|
Ab|----------------6--6-6-6-6--6-----------------6--6-5-5-5--5-|
Eb|-3--3-3-3-3--3--4--4-4-4-4--4--3--3-3-3-3--3--4--4-3-3-3--3-|
Bb|-1--1-1-1-1--1--4--4-4-4-4--4--1--1-1-1-1--1--4--4-3-3-3--3-|

Portchorus:
Bb|-13--/16----13--16---13---|
Gb|--------------------------|
Db|-10--/13----10--13---10---| x2
Ab|--------------------------|
Eb|--------------------------|
Bb|--------------------------|

Interlude:
Bb|---------------------------------------------------------------------|
Gb|-12------8h10------12-------13----15\--12------8h10------12-------13-|
Db|----10--------10------13------------------10--------10------13-------|
Ab|-------8---------8-------11----11------------8---------8-------11----|
Eb|---------------------------------------------------------------------|
Bb|---------------------------------------------------------------------|

Verse:
Bb|-------------------------------------|
Gb|-------------------------------------|
Db|-------------------------------------| x4
Ab|-10--x-x-x-6-8-8--/10--10--13--13-13-|
Eb|-8---x-x-x-8-8-8--/11--11--11--11-11-|
Bb|-6---x-x-x-6-6-6--/9---9---9---9--9--|

Chorus:
Bb|------------------------------------------------------------|
Gb|------------------------------------------------------------|
Db|------------------------------------------------------------|
Ab|----------------6--6-6-6-6--6-----------------6--6-6-6-6--6-|
Eb|-3--3-3-3-3--3--4--4-4-4-4--4--3--3-3-3-3--3--4--4-4-4-4--4-|
Bb|-1--1-1-1-1--1--4--4-4-4-4--4--1--1-1-1-1--1--4--4-4-4-4--4-|

Bb|------------------------------------------------------------|
Gb|------------------------------------------------------------|
Db|------------------------------------------------------------|
Ab|----------------6--6-6-6-6--6-----------------6--6-5-5-5--5-|
Eb|-3--3-3-3-3--3--4--4-4-4-4--4--3--3-3-3-3--3--4--4-3-3-3--3-|
Bb|-1--1-1-1-1--1--4--4-4-4-4--4--1--1-1-1-1--1--4--4-3-3-3--3-|

Portchorus:
Bb|-13--/16----13--16---13---|
Gb|--------------------------|
Db|-10--/13----10--13---10---| x2
Ab|--------------------------|
Eb|--------------------------|
Bb|--------------------------|

Interlude:
Bb|---------------------------------------------------------------------|
Gb|-12------8h10------12-------13----15\--12------8h10------12-------13-|
Db|----10--------10------13------------------10--------10------13-------|
Ab|-------8---------8-------11----11------------8---------8-------11----|
Eb|---------------------------------------------------------------------|
Bb|---------------------------------------------------------------------|

Verse:
Bb|-------------------------------------|
Gb|-------------------------------------|
Db|-------------------------------------| x4
Ab|-10--x-x-x-6-8-8--/10--10--13--13-13-|
Eb|-8---x-x-x-8-8-8--/11--11--11--11-11-|
Bb|-6---x-x-x-6-6-6--/9---9---9---9--9--|

Chorus:
Bb|------------------------------------------------------------|
Gb|------------------------------------------------------------|
Db|------------------------------------------------------------|
Ab|----------------6--6-6-6-6--6-----------------6--6-6-6-6--6-|
Eb|-3--3-3-3-3--3--4--4-4-4-4--4--3--3-3-3-3--3--4--4-4-4-4--4-|
Bb|-1--1-1-1-1--1--4--4-4-4-4--4--1--1-1-1-1--1--4--4-4-4-4--4-|

Bb|------------------------------------------------------------|
Gb|------------------------------------------------------------|
Db|------------------------------------------------------------|
Ab|----------------6--6-6-6-6--6-----------------6--6-6-6-6--6-|
Eb|-3--3-3-3-3--3--4--4-4-4-4--4--3--3-3-3-3--3--4--4-4-4-4--4-|
Bb|-1--1-1-1-1--1--4--4-4-4-4--4--1--1-1-1-1--1--4--4-4-4-4--4-|

Bb|------------------------------------------------------------|
Gb|------------------------------------------------------------|
Db|------------------------------------------------------------|
Ab|----------------6--6-6-6-6--6-----------------6--6-6-6-6--6-|
Eb|-3--3-3-3-3--3--4--4-4-4-4--4--3--3-3-3-3--3--4--4-4-4-4--4-|
Bb|-1--1-1-1-1--1--4--4-4-4-4--4--1--1-1-1-1--1--4--4-4-4-4--4-|

Bb|------------------------------------------------------------|
Gb|------------------------------------------------------------|
Db|------------------------------------------------------------|
Ab|----------------6--6-6-6-6--6-----------------6--6-5-5------|
Eb|-3--3-3-3-3--3--4--4-4-4-4--4--3--3-3-3-3--3--4--4-3-3------|
Bb|-1--1-1-1-1--1--4--4-4-4-4--4--1--1-1-1-1--1--4--4-3-3------|

---------------
 07 - Epiphany
---------------

Tuning: Drop D

 Verse:
e|-------------------|   
B|-------------------|
G|---7-7-7-7-7-7-7-7-|
D|---7-7-7-7-7-7-7-7-|
A|---0-0-0-0-0-0-0-0-|
D|---0-0-0-0-0-0-0-0-|

e|--------------------|   
B|--------------------|
G|---7-7-7-7-7-7-7-7--|
D|---7-7-7-7-7-7-7-7--|
A|---5-5-5-5-5-5-5-5--|
D|---5-5-5-5-5-5-5-5--|

e|-------------------|   
B|-------------------|
G|---7-7-7-7-7-7-7-7-|
D|---7-7-7-7-7-7-7-7-|
A|---0-0-0-0-0-0-0-0-|
D|---0-0-0-0-0-0-0-0-|

e|---------------------|    
B|---------------------|
G|---7-7-7-7-7-7-7-7---|
D|---7-7-7-7-7-7-7-7---|
A|---5-5-5-5-5-5-5-5---|
D|---5-5-5-5-5-5-5-5---|

 Chorus:
e|------------------------------------------|
B|------------------------------------------|
G|---11-11-11-11-11-11-11-7-7-7-7-7-7-7-7---|
D|---11-11-11-11-11-11-11-7-7-7-7-7-7-7-7---|
A|---9--9--9--9--9--9--9--5-5-5-5-5-5-5-5---|
D|---9--9--9--9--9--9--9--5-5-5-5-5-5-5-5---|

-------------
 08 - Suffer
-------------

Tuning: Bb Gb Db Ab Db Ab

Intro:
Bb|---------------------------------|
Gb|-------------------0---------0---|
Db|---------------------0-----------|
Ab|-0-------8-----7-------0---------| x5
Db|-0-------8---0-8---------5-------|
Ab|-------------------------3-------|

Bb|---------------------------------|
Gb|---------------------------------|
Db|---------------------------------|
Ab|-0-------8-----7---7-7-7-7-7-7-7-|
Db|-0-------8---0-8---8-8-8-8-8-8-8-|
Ab|---------------------------------|

Verse:
Bb|-----------------|
Gb|-0-0-0-0-0-0-0-0-|
Db|-0-0-0-0-0-0-0-0-|
Ab|-7-8-8-8-8-8-8-7-| x3
Db|-8-8-8-8-8-8-8-8-|
Ab|-----------------|

Bb|---------------------|
Gb|-0-0-0-0-------------|
Db|-0-0-0-0-10-10-10-10-|
Ab|-7-8-8-8--8--8--8--8-|
Db|-8-8-8-8--8--8--8--8-|
Ab|---------------------|

Bb|-----------------|
Gb|-0-0-0-0-0-0-0-0-|
Db|-0-0-0-0-0-0-0-0-|
Ab|-8-8-8-8-8-8-8-7-| x3
Db|-8-8-8-8-8-8-8-8-|
Ab|-----------------|

Bb|---------------------|
Gb|-0-0-0-0-------------|
Db|-0-0-0-0-10-10-10-10-|
Ab|-7-8-8-8--7--7--7--7-|
Db|-8-8-8-8--7--7--7--7-|
Ab|---------------------|

Prechorus:
Bb|---------------------------------|
Gb|-------------------0---------0---|
Db|---------------------0-----------|
Ab|-0-------8-----7-------0---------|
Db|-0-------8---0-8---------5-------|
Ab|-------------------------3-------|

Chorus: (x4)
Bb|---------------------------------|
Gb|---------------------------------|
Db|--------10-----7-----8---8p7-----|
Ab|-8---8-----------------------8---|
Db|---------------------------------|
Ab|-8-----8-----8-----8-------------|
                                     
Bb|---------------------------------|
Gb|-8---8---8-8-8-------------------|
Db|-8---8---8-8-8-8-----8---8-8-8-8-|
Ab|-6---6---6-6-6-5-----5---5-5-5-5-|
Db|-6---6---6-6-6-5-----5---5-5-5-5-|
Ab|---------------------------------|

Interlude:
Bb|---------------------------------|
Gb|---------------------------------|
Db|---------------------------------|
Ab|-3-------6-----8---------8-8-----| x4
Db|-5-------6-----8---------8-8-----|
Ab|-3---x-x-3---x-6-----6-6-5-5-5---|

Bb|---------------------------------|
Gb|---------------------------------|
Db|--------10-----7-----8---8p7-----|
Ab|-----------------------------8---|
Db|---------------------------------|
Ab|-8-----------8-----8-------------|

Bb|---------------------------------|
Gb|-8-------------------------------|
Db|-8-------------------------------|
Ab|-5-------------------------------|
Db|-5-------------5-----------------|
Ab|---------------------------------|

Outro:
Bb|---------------------------------|
Gb|---------------------------------|
Db|--------10-----7-----8---8p7-----|
Ab|-----------------------------8---|
Db|---------------------------------|
Ab|-8-----------8-----8-------------|

Bb|---|
Gb|-8-|
Db|-8-|
Ab|-6-|
Db|-6-|
Ab|---|

----------------------
 09 - Warm Safe Place
----------------------

Tuning: Bb Gb Db Ab eb Bb

Intro:
Bb|-------------------------------|
Gb|-------------------------------|
Db|-------------------------------| x3
Ab|-10---10--10-8-----------------|
Eb|-0----0---0--0---0-0---0-0-0-0-|
Bb|-------------------------------|

Bb|-------------------------------|
Gb|-------------------------------|
Db|-------------------------------| x1
Ab|-10---10--10-8-----------------|
Eb|-0----0---0--0---0-3h6-6p3-3-0-|
Bb|-----------------0-3h6-6p3-3-0-|

Bb|-------------------------------|
Gb|-------------------------------|
Db|-------------------------------| x3
Ab|-5/---10--10-8-----------------|
Eb|-5/---0---0--0---0-3h6-6p3-3-0-|
Bb|-5/--------------0-3h6-6p3-3-0-|

Bb|-------------0-----------------|
Gb|-------------0-----------------|
Db|-------------9-----------------| x1
Ab|-5----10--10-8-----------------|
Eb|-5----0---0--0-----------------|
Bb|-5-----------0-----------------|

Verse:
Bb|-------------------------------|
Gb|-------------------------------|
Db|-------------------------------| x3
Ab|-10---10--10-8-----------------|
Eb|-0----0---0--0---0-0---0-0-0-0-|
Bb|-------------------------------|

Bb|-------------------------------|
Gb|-------------------------------|
Db|-------------------------------| x1
Ab|-10---10--10-8-----------------|
Eb|-0----0---0--0---0-3h6-6p3-3-0-|
Bb|-----------------0-3h6-6p3-3-0-|
[ Tab from: http://www.guitartabs.cc/tabs/s/staind/break_the_cycle_tab.html ]
Bb|---------------------------------------------------------------|
Gb|---------------------------------------------------------------|
Db|---------------------------------------------------------------|
Ab|-5/---10--10-8---0-5-------5---5/---10--10-8---0-0-0-0-0-0-0-0-|
Eb|-5/---0---0--0---0---0-0-0---0-5/---0---0--0---0-0-0-0-0-0-0-0-|
Bb|-5/----------------------------5/------------------------------|
Pm                                                . . . . . . .
Nh                  .       .

Bb|---------------------------------------------------------------|
Gb|---------------------------------------------------------------|
Db|---------------------------------------------------------------|
Ab|-5/---10--10-8---0-5-------5---5/---10--10-8-------------------|
Eb|-5/---0---0--0---0---0-0-0---0-5/---0---0--0---0-0-0-0-0-0-0-0-|
Bb|-5/----------------------------5/------------------------------|
Pm                                                . . . . . . .
Nh                  .       .

Chorus:				(Guitar 1)
Bb|------------------------------------------------------------------------|
Gb|------------------------------------------------------------------------|
Db|------------------------------------------------------------------------| x3
Ab|-10---10--9--10----10----9h10-10----13---13--12-13----13-13-13h15-15-12-|
Eb|-10---10--10-10----10----10---10-10-12---12--12-12----12-12-12----12-12-|
Bb|-10---10--10-10----10-10-10---10-10-12---12--12-12----12----12----12-12-|

				(Guitar 2)
Bb|-7----7---7--5-----5--0--8-8--7--0--12---12--15/17----17-17-15-15-12-12-|
Gb|------------------------------------------------------------------------|
Db|------------------------------------------------------------------------| x3
Ab|------------------------------------------------------------------------|
Eb|------------------------------------------------------------------------|
Bb|------------------------------------------------------------------------|

			(Guitar 1)
Bb|-----------------------------------------------------|
Gb|-----------------------------------------------------|
Db|-----------------------------------------------------| x1
Ab|-10---10--9--10----10----9h10-10----13---13--12-13---|
Eb|-10---10--10-10----10----10---10-10-12---12--12-12---|
Bb|-10---10--10-10----10-10-10---10-10-12---12--12-12---|

			(Guitar 2)
Bb|-7----7---7--5-----5--0--8-8--7--0--12---------------|
Gb|-----------------------------------------11--11-9----|
Db|-----------------------------------------------------| x1
Ab|-----------------------------------------------------|
Eb|-----------------------------------------------------|
Bb|-----------------------------------------------------|

      (Guitar 1)
Bb|------------------|
Gb|------------------|
Db|------------------| x1
Ab|-13---13--12h13---|
Eb|-12---12--12------|
Bb|------------------|

      (Guitar 2)
Bb|------------------|
Gb|-12-------11h12---|
Db|------------------| x1
Ab|------------------|
Eb|------------------|
Bb|------------------|

Verse:
Bb|-------------------------------|
Gb|-------------------------------|
Db|-------------------------------| x3
Ab|-10---10--10-8-----------------|
Eb|-0----0---0--0---0-0---0-0-0-0-|
Bb|-------------------------------|

Bb|-------------------------------|
Gb|-------------------------------|
Db|-------------------------------| x1
Ab|-10---10--10-8-----------------|
Eb|-0----0---0--0---0-3h6-6p3-3-0-|
Bb|-----------------0-3h6-6p3-3-0-|

Bb|---------------------------------------------------------------|
Gb|---------------------------------------------------------------|
Db|---------------------------------------------------------------|
Ab|-5/---10--10-8---0-5-------5---5/---10--10-8---0-0-0-0-0-0-0-0-|
Eb|-5/---0---0--0---0---0-0-0---0-5/---0---0--0---0-0-0-0-0-0-0-0-|
Bb|-5/----------------------------5/------------------------------|
Pm                                                . . . . . . .
Nh                  .       .

Bb|---------------------------------------------------------------|
Gb|---------------------------------------------------------------|
Db|---------------------------------------------------------------|
Ab|-5/---10--10-8---0-5-------5---5/---10--10-8-------------------|
Eb|-5/---0---0--0---0---0-0-0---0-5/---0---0--0---0-0-0-0-0-0-0-0-|
Bb|-5/----------------------------5/------------------------------|
Pm                                                . . . . . . .
Nh                  .       .

Chorus:				(Guitar 1)
Bb|------------------------------------------------------------------------|
Gb|------------------------------------------------------------------------|
Db|------------------------------------------------------------------------| x3
Ab|-10---10--9--10----10----9h10-10----13---13--12-13----13-13-13h15-15-12-|
Eb|-10---10--10-10----10----10---10-10-12---12--12-12----12-12-12----12-12-|
Bb|-10---10--10-10----10-10-10---10-10-12---12--12-12----12----12----12-12-|

				(Guitar 2)
Bb|-7----7---7--5-----5--0--8-8--7--0--12---12--15/17----17-17-15-15-12-12-|
Gb|------------------------------------------------------------------------|
Db|------------------------------------------------------------------------| x3
Ab|------------------------------------------------------------------------|
Eb|------------------------------------------------------------------------|
Bb|------------------------------------------------------------------------|

			(Guitar 1)
Bb|-----------------------------------------------------|
Gb|-----------------------------------------------------|
Db|-----------------------------------------------------| x1
Ab|-10---10--9--10----10----9h10-10----13---13--12-13---|
Eb|-10---10--10-10----10----10---10-10-12---12--12-12---|
Bb|-10---10--10-10----10-10-10---10-10-12---12--12-12---|

			(Guitar 2)
Bb|-7----7---7--5-----5--0--8-8--7--0--12---------------|
Gb|-----------------------------------------11--11-9----|
Db|-----------------------------------------------------| x1
Ab|-----------------------------------------------------|
Eb|-----------------------------------------------------|
Bb|-----------------------------------------------------|

	(Guitar 1)
Bb|-------------------------|
Gb|-------------------------|
Db|-------------------------|
Ab|-13---13--12h13----------|
Eb|-12---12--12-------------|
Bb|-12---12--12-------------|

	(Guitar 2)
Bb|-------------------------|
Gb|-------------------------|
Db|-------------------------|
Ab|-------------------13\---|
Eb|-------------------12\---|
Bb|-------------------------|

Bridge:
Bb|-----------------------------------------------------------------|
Gb|-----------------------------------------------------------------|
Db|-----------------------------------------------------------------| x 3
Ab|-8--8--8-----8--8---8-8-8-----------5-5-5-5-3---6-5--------------|
Eb|-8--8--8--x--8--8---8-8-8-----------5-5-5-5-3---6-5--------------|
Bb|-8--8--8--x--8--8---8-8-8-17---17---5-5-5-5-3---6-5------3---3---|
Nh                         ..   ..                        .   .

Bb|-----------------------------------------------------------------|
Gb|-----------------------------------------------------------------|
Db|-----------------------------------------------------------------| x 1
Ab|-8--8--8-----8--8---8-8-8-----------5-5-5-5-3---6-5--------------|
Eb|-8--8--8--x--8--8---8-8-8-----------5-5-5-5-3---6-5--------------|
Bb|-8--8--8--x--8--8---8-8-8-17---17---5-5-5-5-3---6-5--------------|
Nh                         ..   ..

Verse:
Bb|-------------------------------|
Gb|-------------------------------|
Db|-------------------------------| x3
Ab|-10---10--10-8-----------------|
Eb|-0----0---0--0---0-0---0-0-0-0-|
Bb|-------------------------------|

Bb|-------------0-----------------|
Gb|-------------0-----------------|
Db|-------------9-----------------| x1
Ab|-10---10--10-8-----------------|
Eb|-0----0---0--0-----------------|
Bb|-------------0-----------------|

Chorus:				(Guitar 1)
Bb|------------------------------------------------------------------------|
Gb|------------------------------------------------------------------------|
Db|------------------------------------------------------------------------| x3
Ab|-10---10--9--10----10----9h10-10----13---13--12-13----13-13-13h15-15-12-|
Eb|-10---10--10-10----10----10---10-10-12---12--12-12----12-12-12----12-12-|
Bb|-10---10--10-10----10-10-10---10-10-12---12--12-12----12----12----12-12-|

				(Guitar 2)
Bb|-7----7---7--5-----5--0--8-8--7--0--12---12--15/17----17-17-15-15-12-12-|
Gb|------------------------------------------------------------------------|
Db|------------------------------------------------------------------------| x3
Ab|------------------------------------------------------------------------|
Eb|------------------------------------------------------------------------|
Bb|------------------------------------------------------------------------|

			(Guitar 1)
Bb|-----------------------------------------------------|
Gb|-----------------------------------------------------|
Db|-----------------------------------------------------| x1
Ab|-10---10--9--10----10----9h10-10----13---13--12-13---|
Eb|-10---10--10-10----10----10---10-10-12---12--12-12---|
Bb|-10---10--10-10----10-10-10---10-10-12---12--12-12---|

			(Guitar 2)
Bb|-7----7---7--5-----5--0--8-8--7--0--12---------------|
Gb|-----------------------------------------11--11-9----|
Db|-----------------------------------------------------| x1
Ab|-----------------------------------------------------|
Eb|-----------------------------------------------------|
Bb|-----------------------------------------------------|

	(Guitar 1)
Bb|-------------------------|
Gb|-------------------------|
Db|-------------------------|
Ab|-13---13--12h13----------|
Eb|-12---12--12-------------|
Bb|-12---12--12-------------|

	(Guitar 2)
Bb|-------------------------|
Gb|-------------------------|
Db|-------------------------|
Ab|-------------------13\---|
Eb|-------------------12\---|
Bb|-------------------------|

Outro:
				(Guitar 1)
Bb|-------------------------0-------|     |--------------------|
Gb|-0-------------------------0-----|	  |--------------------|
Db|-5----5---4h5--------5-------4---|	  |-5----5---4h5-------|
Ab|-5----5---5------------5-------5-| x3  |-5----5---5---------|
Eb|-0----0---0--------0-------------|	  |-0----0---0---------|
Bb|---------------------------------|	  |--------------------|

				(Guitar 2)
Bb|----------------------12---------|     |--------------------|
Gb|-11---11--9h11--12-11----12-11-9-|	  |-11---11--9h11------|
Db|---------------------------------|	  |--------------------|
Ab|---------------------------------| x3  |--------------------|
Eb|---------------------------------|	  |--------------------|
Bb|---------------------------------|	  |--------------------|
--------------
 10 - For You
--------------

Tuning: eb Bb Gb Db Ab Db

(Guitar 1) - Distrtion
(Guitar 2) - Clean w/delay

Key:
\  - slide down
/  - slide up
^  - bend(half)
^^ - bend(full)
h  - hammer on
p  - pull off

Intro/verse: (x6)
Eb|--2h4--4--4--2h4--4--2h4--4--4--4--2h4--4--4--------------|
Bb|--2h4--------2h4-----2h4-----------2h4--------------------|
Gb|----------------------------------------------------------|
Db|----------------------------------------------------------|
Ab|----------------------------------------------------------|
Db|----------------------------------------------------------|
         pm..      pm       pm.....       pm..          

Eb|--2h4--4--4--2h4--4--2h4--4--4--2--5\4--2--2--------------|
Bb|--2h4--------2h4-----2h4-----------5\4--------------------|
Gb|----------------------------------------------------------|
Db|----------------------------------------------------------|
Ab|----------------------------------------------------------|
Db|----------------------------------------------------------|
         pm..      pm      pm......       pm..      
                                                            
Chorus: (x2)
			(Guitar 1)
Eb|----------------------------------------------------------|
Bb|----------------------------------------------------------|
Gb|----------------------------------------------------------|
Db|---------------------------------------6------------------|
Ab|--7--------(7)\5------------5-----------------------------|
Db|----------------------------------------------------------|

Eb|----------------------------------------------------------|
Bb|----------------------------------------------------------|
Gb|----------------------------------------------------------|
Db|---------------------------------------6------------------|
Ab|----------------------------------------------------------|
Db|--5-------------------4-----------------------------------|

Eb|----------------------------------------------------------|
Bb|----------------------------------------------------------|
Gb|----------------------------------------------------------|
Db|---------------------------------------6------------------|
Ab|--7--------(7)\5------------5-----------------------------|
Db|----------------------------------------------------------|

Eb|----------------------------------------------------------|
Bb|----------------------------------------------------------|
Gb|----------------------------------------------------------|
Db|----------------------------------------------------------|
Ab|----------------------------------------------------------|
Db|--5-------------------4-----------------------------------|

Verse: (x6)
Eb|--2h4--4--4--2h4--4--2h4--4--4--4--2h4--4--4--------------|
Bb|--2h4--------2h4-----2h4-----------2h4--------------------|
Gb|----------------------------------------------------------|
Db|----------------------------------------------------------|
Ab|----------------------------------------------------------|
Db|----------------------------------------------------------|
         pm..      pm       pm.....       pm..          

Eb|--2h4--4--4--2h4--4--2h4--4--4--2--5\4--2--2--------------|
Bb|--2h4--------2h4-----2h4-----------5\4--------------------|
Gb|----------------------------------------------------------|
Db|----------------------------------------------------------|
Ab|----------------------------------------------------------|
Db|----------------------------------------------------------|
         pm..      pm      pm......       pm..      
                                                            
Chorus: (x2)
			(Guitar 1)
Eb|----------------------------------------------------------|
Bb|----------------------------------------------------------|
Gb|----------------------------------------------------------|
Db|---------------------------------------6------------------|
Ab|--7--------(7)\5------------5-----------------------------|
Db|----------------------------------------------------------|

Eb|----------------------------------------------------------|
Bb|----------------------------------------------------------|
Gb|----------------------------------------------------------|
Db|---------------------------------------6------------------|
Ab|----------------------------------------------------------|
Db|--5-------------------4-----------------------------------|

Eb|----------------------------------------------------------|
Bb|----------------------------------------------------------|
Gb|----------------------------------------------------------|
Db|---------------------------------------6------------------|
Ab|--7--------(7)\5------------5-----------------------------|
Db|----------------------------------------------------------|

Eb|----------------------------------------------------------|
Bb|----------------------------------------------------------|
Gb|----------------------------------------------------------|
Db|----------------------------------------------------------|
Ab|----------------------------------------------------------|
Db|--5-------------------4-----------------------------------|


Bridge:			(Guitar 3)
Eb|--4-------4------------4------------4-----------4------4--|
Bb|----------------------------------------------------------|
Gb|----------------------------------------------------------|
Db|----------------------------------------------------------| x9
Ab|----------------------------------------------------------|
Db|----------------------------------------------------------|
   pm......................................................

(Guitar 1) (comes in on seventh time for guitar 3)
Eb|--4---| |--4---| |--4-4-| |--4-4-|
Bb|--4---| |--4---| |--4-4-| |--4-4-|
Gb|------| |------| |------| |------|
Db|------| |------| |------| |------|
Ab|------| |------| |------| |------|
Db|------| |------| |------| |------|

Eb|--4----2--4------2----4----2----2------4----2-------------|
Bb|--4-------4-----------4---------2------4----2-------------|
Gb|----------------------------------------------------------|
Db|----------------------------------------------------------| x3
Ab|----------------------------------------------------------|
Db|----------------------------------------------------------|
        pm        pm        pm         

Eb|--4----2--4------2----4----2----2------2----2-------------|
Bb|--4-------4-----------4---------2------2----2-------------|
Gb|----------------------------------------------------------|
Db|----------------------------------------------------------| x3
Ab|----------------------------------------------------------|
Db|----------------------------------------------------------|
        pm        pm        pm            

Chorus: (x4)
			(Guitar 1)
Eb|----------------------------------------------------------|
Bb|----------------------------------------------------------|
Gb|----------------------------------------------------------|
Db|---------------------------------------6------------------|
Ab|--7--------(7)\5------------5-----------------------------|
Db|----------------------------------------------------------|

Eb|----------------------------------------------------------|
Bb|----------------------------------------------------------|
Gb|----------------------------------------------------------|
Db|---------------------------------------6------------------|
Ab|----------------------------------------------------------|
Db|--5-------------------4-----------------------------------|

Eb|----------------------------------------------------------|
Bb|----------------------------------------------------------|
Gb|----------------------------------------------------------|
Db|---------------------------------------6------------------|
Ab|--7--------(7)\5------------5-----------------------------|
Db|----------------------------------------------------------|

Eb|----------------------------------------------------------|
Bb|----------------------------------------------------------|
Gb|----------------------------------------------------------|
Db|----------------------------------------------------------|
Ab|----------------------------------------------------------|
Db|--5-------------------4-----------------------------------|


Outro:			(Guitar 1)
Eb|--2h4---4---4---2h4------2--------------------------------|
Bb|--2h4-----------2h4------2--------------------------------|
Gb|----------------------------------------------------------|
Db|----------------------------------------------------------|
Ab|----------------------------------------------------------|
Db|----------------------------------------------------------|
         pm....

---------------
 11 - Outside
---------------


Intro/verse: (acoustic)
       E5         D5         G5        Asus2(5)
eb|--x-x-x-x----0-0-0-0----x-x-x-x----x-x-x-x----|
Bb|--0-0-0-0----0-0-0-0----0-0-0-0----0-0-0-0----|
Gb|--9-9-9-9----7-7-7-7----0-0-0-0----0-0-0-0----|
Db|--9-9-9-9----7-7-7-7----0-0-0-0----7-7-7-7----|
Ab|--7-7-7-7----5-5-5-5----5-5-5-5----7-7-7-7----|
Eb|--0-0-0-0----x-x-x-x----3-3-3-3----5-5-5-5----|



Chorus:
       E         G          D         Asus2
eb|--0-0-0-0----3-3-3-3----2-2-2-2----0-0-0-0----|
Bb|--0-0-0-0----3-3-3-3----3-3-3-3----0-0-0-0----|
Gb|--1-1-1-1----0-0-0-0----2-2-2-2----2-2-2-2----|
Db|--2-2-2-2----0-0-0-0----0-0-0-0----2-2-2-2----|
Ab|--2-2-2-2----2-2-2-2----x-x-x-x----0-0-0-0----|
Eb|--0-0-0-0----3-3-3-3----x-x-x-x----x-x-x-x----|


Intro: (clean)
     E5                   D5
Bb|--------------13----------------------12-----------|
Gb|--16----16-------16----14-------14-------14----14--|
Db|-----14----14-------14-------14----14-------14-----|
Bb|---------------------------------------------------|
Eb|---------------------------------------------------|
Ab|---------------------------------------------------|

     G5                   Asus2(5)
Bb|-----------10----------12--------------------------|
Gb|-----12----------12----------12------12------------|
Db|--12----12----------12----------9h10----10---------|
Bb|---------------------------------------------------|
Eb|---------------------------------------------------|
Ab|---------------------------------------------------|

Verse: (clean)
     E5                   D5
Bb|--------------13----------------------12-----------|
Gb|--16----16-------16----14-------14-------14----14--|
Db|-----14----14-------14-------14----14-------14-----|
Bb|---------------------------------------------------|
Eb|---------------------------------------------------|
Ab|---------------------------------------------------|\
                                                        \
     G5                   Asus2(5)                      / x3
Bb|-----------10----------12------------------10------|/
Gb|-----12----------12----------12------12-------12---|
Db|--12----12----------12----------9h10----10---------|
Bb|---------------------------------------------------|
Eb|---------------------------------------------------|
Ab|---------------------------------------------------|

     E5                   D5
Bb|--------------13----------------------12-----------|
Gb|--16----16-------16----14-------14-------14----14--|
Db|-----14----14-------14-------14----14-------14-----|
Bb|---------------------------------------------------|
Eb|---------------------------------------------------|
Ab|---------------------------------------------------|

     G5                   Asus2(5) 
Bb|-----------10----------12--------------------------|
Gb|-----12----------12----------12------12------------|
Db|--12----12----------12----------9h10----10---------|
Bb|---------------------------------------------------|
Eb|---------------------------------------------------|
Ab|---------------------------------------------------|



Chorus: (dist.)
     E                          G
Bb|-----------------------------------------------------------------|
Gb|-----------------------------------------------------------------|
Db|------------------------------------12--------9--------10/-------|
Bb|--0-----0----0-0-----0---0-0-10----------------------------------|
Eb|--0-----0----0-0-----0---0-0-10----------------------------------|
Ab|--7-----7----7-7-----7---7-7-10----------10-------10-------------|\
                                                                      \
     D                          Asus2                                 / x2
Bb|-----------------------------------------------------------------|/
Gb|-----------------------------------------------------------------|
Db|-----------------------------------------------10----------------|
Bb|--5-----5-----------5-/------12-------12------------12---10---8--|
Eb|--5-----5-----------5-/------12---0--------0---------------------|
Ab|--5-----5-----------5-/------12----------------------------------|



Postchorus: (dist.)
     E5                        D5
Bb|-----------------------------------------------------------------|
Gb|-----------------------------------------------------------------|
Db|-----------------2---2-------------------------------------------|
Bb|--12/----0-------0---0------5---------5-------------------5---5/-|
Eb|--12/----0-------0---0------5---------5-------------------5---5/-|
Ab|----------------------------5---------5-------------------5---5/-|

     G5                        Asus2(5)
Bb|-----------------------------------------------------------------|
Gb|-----------------------------------------------------------------|
Db|--------12------9-------10---------------------------------------|
Bb|--10------------------------5------------------------------------|
Eb|--10------------------------5------------------------------------|
Ab|--10--------10------10-------------------------------------------|



Bridge: x1		(Guitar 1) dist.
     E5                        D5
Bb|--9------9------9---7---9--10-/----------------------------------|
Gb|-------------------------------------7---7---7---11--9---7---7---|
Db|--6------6------6---4---6---7-/----------------------------------|
Bb|-------------------------------------3---3---3---7---5---3---3---|
Eb|-----------------------------------------------------------------|
Ab|-----------------------------------------------------------------|

     G5                        Asus2(5)
Bb|-----------------------------0-------0---0---0---0---0---0---0---|
Gb|--9-----7---7---11---9---7---9-----------9---9---9---9---9---9---|
Db|-----------------------------------------------------------------|
Bb|--5-----3---3----7---5---3---5-----------5---5---5---5---5---5---|
Eb|-----------------------------------------------------------------|
Ab|-----------------------------------------------------------------|



Bridge: 		(Guitar 2) dist.

     E5                        D5
Bb|-----------------------------------------------------------------|
Gb|-----------------------------------------------------------------|
Db|-----------------2---2----------------------------------------0--|
Bb|--12/----0-------0---0------5---------5-----------------------0--|
Eb|--12/----0-------0---0------5---------5-------------------5------|
Ab|----------------------------5---------5-------------------5------|\
                                                                      \
     G5                        Asus2(5)                               / x4
Bb|-----------------------------------------------------------------|/
Gb|-----------------------------------------------------------------|
Db|--------12------9-------10-----------------------10--------------|
Bb|--10------------------------12----------12------------12--10--8--|
Eb|--10------------------------12------0--------0-------------------|
Ab|--10--------10------10------12-----------------------------------|

Clean.
     E5                   D5
Bb|--------------13----------------------12-----------|
Gb|--16----16-------16----14-------14-------14----14--|
Db|-----14----14-------14-------14----14-------14-----|
Bb|---------------------------------------------------|
Eb|---------------------------------------------------|
Ab|---------------------------------------------------|

     G5                   Asus2(5)
Bb|-----------10----------12--------------------------|
Gb|-----12----------12----------12------12------------|
Db|--12----12----------12----------9h10---------------|
Bb|---------------------------------------------------|
Eb|---------------------------------------------------|
Ab|---------------------------------------------------|



Chorus: x2 (acoustic)
E G D Asus2

---------------
 12 - Waste
---------------
Tuning: Bb Gb Db Ab Db Ab

Intro:
Bb|----------------------|-----------------------|
Gb|----------------------|-----------------------|
Db|-------------7------6-|-------------6---------|
Ab|---h4p5-4-------------|---h4p5-4-----------7--|
Db|-4--------4------4----|-4--------4------4-----|
Ab|----------------------|-----------------------|

Bb|------9------10-------|------9------10-----12-|
Gb|----9---9--------9----|----9---9--------9-----|
Db|-11-------11--------9-|-11-------11-----------|
Ab|----------------------|-----------------------|
Db|----------------------|-----------------------|
Ab|----------------------|-----------------------|

Bb|----------------------|-----------------------|
Gb|----------------------|-----------------------|
Db|-------------7------6-|-------------6---------|
Ab|---h4p5-4-------------|---h4p5-4-----------7--|
Db|-4--------4------4----|-4--------4------4-----|
Ab|----------------------|-----------------------|

Verse:
Bb|------9------10-------|------9------10-----12-|
Gb|----9---9--------9----|----9---9--------9-----|
Db|-11-------11--------9-|-11-------11-----------|
Ab|----------------------|-----------------------|
Db|----------------------|-----------------------|
Ab|----------------------|-----------------------|


Bb|------9------9--10-|-(10)---10---9------|
Gb|----9---9----------|------9----9---9----|
Db|-11-------11-------|-----------------9--|
Ab|-------------------|--------------------|
Db|-------------------|--------------------|
Ab|-------------------|--------------------|

Bb|------9------9--10-|-(10)---10---12-----|
Gb|----9---9----------|------9----9--------|
Db|-11-------11-------|--------------------|
Ab|-------------------|--------------------|
Db|-------------------|--------------------|
Ab|-------------------|--------------------|

Chorus:
Bb|-------------------|--------------------|
Gb|-------------------|--------------------|
Db|----------------7--|-(7)----7----6------|
Ab|-4-h4p5-4-4--5--4--|-(4)--4----4---4-7--|
Db|-4--------4--4--4--|-(4)--4-------------|
Ab|-------------------|--------------------|

Bb|-------------------|--------------------|
Gb|-------------------|--------------------|
Db|----------------7--|-(7)----7----6------|
Ab|-4-h4p5-4-4--5--4--|-(4)--4----4----x-x-|
Db|-4--------4--4--4--|-(4)--4---------x-x-|
Ab|-------------------|--------------------|

Verse:
Bb|------9------9--10-|-(10)---10---9------|
Gb|----9---9----------|------9----9---9----|
Db|-11-------11-------|-----------------9--|
Ab|-------------------|--------------------|
Db|-------------------|--------------------|
Ab|-------------------|--------------------|

Bb|------9------9--10-|-(10)---10---12-----|
Gb|----9---9----------|------9----9--------|
Db|-11-------11-------|--------------------|
Ab|-------------------|--------------------|
Db|-------------------|--------------------|
Ab|-------------------|--------------------|

Chorus:
Bb|-------------------|--------------------|
Gb|-------------------|--------------------|
Db|----------------7--|-(7)----7----6------|
Ab|-4-h4p5-4-4--5--4--|-(4)--4----4---4-7--|
Db|-4--------4--4--4--|-(4)--4-------------|
Ab|-------------------|--------------------|

Bb|-------------------|--------------------|
Gb|-------------------|--------------------|
Db|----------------7--|-(7)----7----6------|
Ab|-4-h4p5-4-4--5--4--|-(4)--4----4----x-x-|
Db|-4--------4--4--4--|-(4)--4---------x-x-|
Ab|-------------------|--------------------|

Interlude:
Bb|-----------------|----------------|
Gb|-----------------|----------------|
Db|-----------------|----------------|
Ab|p7-6-6-7p7-6-x-9-|-(9)----(9)-----| x2
Db|p7-6-6-7p7-6-x-9-|-(9)----(9)---x-|
Ab|---------------7-|-(7)----(7)---x-|

Bb|-----------------|------------|---------------------------|
Gb|-----------------|------------|---------------------------|
Db|-----------------|------------|----15----12-(12)-------14-|
Ab|p7-6-6-7p7-6-x-9-|-(9)--------|-12---------------12-------|
Db|p7-6-6-7p7-6-x-9-|-(9)--------|-12----12------------12----|
Ab|---------------7-|-(7)--------|---------------------------|

Bb|--------------------------|
Gb|--------------------------|
Db|-(14)---------------------|
Ab|---------15---------------|
Db|------12----12-10-10-10---|
Ab|----------------0--0--0---|


Bb|---------------------------|-------------------------|
Gb|---------------------------|-------------------------|
Db|----15----12-(12)-------14-|-(14)-14-14--------------|
Ab|-12---------------12----15-|-(15)-15-15--------17----|
Db|-12----12------------12----|----------------17----17-|
Ab|---------------------------|-------------15----------|

Bb|---------------------------|--------------------------|
Gb|---------------------------|--------------------------|
Db|----15----12-(12)-------14-|-(14)---------------------|
Ab|-12---------------12-------|---------15---------------|
Db|-12----12------------12----|------12----12-10-10-10---|
Ab|---------------------------|----------------0--0--0---|

Bb|---------------------------|-------------------------|
Gb|---------------------------|-------------------------|
Db|----15----12-(12)-------14-|-(14)-14-14--------------|
Ab|-12---------------12----15-|-(15)-15-15--------17----|
Db|-12----12------------12----|----------------17----17-|
Ab|---------------------------|-------------15----------|

Bb|---------------------------|--------------------------|
Gb|---------------------------|--------------------------|
Db|----15----12-(12)-------14-|-(14)---------------------|
Ab|-12---------------12-------|---------15---------------|
Db|-12----12------------12----|------12----12-10-10-10---|
Ab|---------------------------|----------------0--0--0---|

Bb|---------------------------|-------------------------|
Gb|---------------------------|-------------------------|
Db|----15----12-(12)-------14-|-(14)-14-14--------------|
Ab|-12---------------12----15-|-(15)-15-15--------17----|
Db|-12----12------------12----|----------------17----17-|
Ab|---------------------------|-------------15----------|

Bb|---------------------------|--------------------------|
Gb|---------------------------|--------------------------|
Db|----15----12-(12)-------14-|-(14)---------------------|
Ab|-12---------------12-------|---------15---------------|
Db|-12----12------------12----|------12----12-10-10-10---|
Ab|---------------------------|----------------0--0--0---|


Bb|---------------------------|--------------------------|
Gb|---------------------------|--------------------------|
Db|----15----12-(12)-------14-|-(14)-14-14---------------|
Ab|-12---------------12----15-|-(15)-15-15--------17-----|
Db|-12----12------------12----|----------------17----17--|
Ab|---------------------------|-------------15-----------|


Bb|-------------------|-----------------------|
Gb|-----------------0-|-(0)---0---------------|
Db|---3---0-(0)-----2-|-(2)-0-2-0-------------|
Ab|-0-----------0---3-|-(3)-0-3-0-------------|
Db|-0---0---------0---|-----------10-10-10-10-|
Ab|-------------------|------------0--0--0--0-|

Bb|-------------------|-----------------------|
Gb|-----------------0-|-(0)---0---------------|
Db|---3---0-(0)-----2-|-(2)-0-2-0-------------|
Ab|-0-----------0---3-|-(3)-0-3-0-5-5-5-5-----|
Db|-0---0---------0---|-----------5-5-5-5-----|
Ab|-------------------|-----------3-3-3-3-----|


Bb|-------------------|-----------------------|
Gb|-----------------0-|-(0)---0---------------|
Db|---3---0-(0)-----2-|-(2)-0-2-0-------------|
Ab|-0-----------0---3-|-(3)-0-3-0-------------|
Db|-0---0---------0---|-----------10-10-10-10-|
Ab|-------------------|------------0--0--0--0-|

Bb|-------------------|-----------------------|
Gb|-----------------0-|-(0)---0---------------|
Db|---3---0-(0)-----2-|-(2)-0-2-0-------------|
Ab|-0-----------0---3-|-(3)-0-3-0-5-5-5-5-----|
Db|-0---0---------0---|-----------5-5-5-5-----|
Ab|-------------------|-----------3-3-3-3-----|

---------------
 13 - Take It
---------------

Tuning: Bb Gb Db Bb eb Ab


Intro:
Bb|--------|
Gb|-5------|
Db|--------| x1
Bb|-5------|
Eb|--------|
Ab|--------|

Bb|--------------------------------------------------------------|
Gb|--------------------------------------------------------------|
Db|-----10---10-----10-10-----10-----10---10-----10-9-10/12-12\9-| x4
Bb|-----x----x------x--x------x------x----x------x--x-x-----x----|
Eb|-7-7-8----8--7-7-8--8--7-7-8--7-7-8----8--7-7-8--7-8-/10-10\7-|
Ab|-7-7---------7-7-------7-7----7-7---------7-7-----------------|

Verse:
Bb|------------------------------------------|
Gb|------------------------------------------|
Db|-------10----------10-------10----------9-| x4
Bb|-------x-----------x--------x-----------x-|
Eb|-7-7-7-8-------7-7-8--7-7-7-8-------7-7-7-|
Ab|-7-7-7---------7-7----7-7-7---------7-7---|

Bb|------------------------------------------|
Gb|------------------------------------------|
Db|-------10---10-----10-------10---10-----9-| 
Bb|-------x----x------x--------x----x------x-|
Eb|-7-7-7-8--7-8--7-7-8--7-7-7-8--7-8--7-7-7-|
Ab|-7-7-7----7----7-7----7-7-7----7----7-7---|

Bb|------------------------------------------|-----------|
Gb|------------------------------------------|-----------|
Db|-------10---10-----10-------10---10--10-9-|-----------|
Bb|-------x----x------x--------x----x---x--x-|-7---------|
Eb|-7-7-7-8--7-8--7-7-8--7-7-7-8--7-8---8--7-|-7-10-10-5-|
Ab|-7-7-7----7----7-7----7-7-7----7----------|---10-10-5-|

Chorus:
Bb|-----------------------------------------|
Gb|-----------------------------------------|
Db|-----------------------------------------|
Bb|-5----------5-5-5-5-7----------7---------|
Eb|-3----------3-3-3-3-7----------7-10-10-5-|
Ab|-3----------3-5-5-3-7------------10-10-5-|

Bb|---------------------------|
Gb|---------------------------|
Db|---------------------------|
Bb|-5------------5-5-5-4------|
Eb|-3------------3-3-3-2------|
Ab|-3------------5-5-3-2------|

Verse:
Bb|------------------------------------------|
Gb|------------------------------------------|
Db|-------10----------10-------10----------9-| x4
Bb|-------x-----------x--------x-----------x-|
Eb|-7-7-7-8-------7-7-8--7-7-7-8-------7-7-7-|
Ab|-7-7-7---------7-7----7-7-7---------7-7---|

Bb|------------------------------------------|
Gb|------------------------------------------|
Db|-------10---10-----10-------10---10-----9-| 
Bb|-------x----x------x--------x----x------x-|
Eb|-7-7-7-8--7-8--7-7-8--7-7-7-8--7-8--7-7-7-|
Ab|-7-7-7----7----7-7----7-7-7----7----7-7---|

Bb|------------------------------------------|-----------|
Gb|------------------------------------------|-----------|
Db|-------10---10-----10-------10---10--10-9-|-----------|
Bb|-------x----x------x--------x----x---x--x-|-7---------|
Eb|-7-7-7-8--7-8--7-7-8--7-7-7-8--7-8---8--7-|-7-10-10-5-|
Ab|-7-7-7----7----7-7----7-7-7----7----------|---10-10-5-|

Chorus:
Bb|-----------------------------------------|
Gb|-----------------------------------------|
Db|-----------------------------------------|
Bb|-5----------5-5-5-5-7----------7---------|
Eb|-3----------3-3-3-3-7----------7-10-10-5-|
Ab|-3----------3-5-5-3-7------------10-10-5-|

Bb|-----------------------------------------|
Gb|-----------------------------------------|
Db|-----------------------------------------|
Bb|-5------------5-5-5-4----------7---------|
Eb|-3------------3-3-3-2----------7-10-10-5-|
Ab|-3------------5-5-3-2------------10-10-5-|

Bb|-----------------------------------------|
Gb|-----------------------------------------|
Db|-----------------------------------------|
Bb|-5----------5-5-5-5-7----------7---------|
Eb|-3----------3-3-3-3-7----------7-10-10-5-|
Ab|-3----------3-5-5-3-7------------10-10-5-|

Bb|---------------------------|
Gb|---------------------------|
Db|---------------------------|
Bb|-5------------5-5-5-4------|
Eb|-3------------3-3-3-2------|
Ab|-3------------5-5-3-2------|

Bridge:
Bb|---------------|
Gb|---------------|
Db|-------10------| x4
Bb|---0------12-0-|
Eb|-0---0---------|
Ab|---------------|

Bb|------------------------------------------------|
Gb|------------------------------------------------|
Db|----------------------------------------------9-|
Bb|-------8------------8------------8------------x-|
eb|-7-7-7-8-10p0-7-7-7-8-10p0-7-7-7-8-10p0-7-7-7-8-|
Ab|-7-7-7---10p0-7-7-7---10p0-7-7-7---10p0-7-7-7---|

Bb|---------------|
Gb|---------------|
Db|-------10------| x4
Bb|---0------12-0-|
Eb|-0---0---------|
Ab|---------------|

Bb|------------------------------------------------|
Gb|------------------------------------------------|
Db|----------------------------------------------9-|
Bb|-------8------------8------------8------------x-|
eb|-7-7-7-8-10p0-7-7-7-8-10p0-7-7-7-8-10p0-7-7-7-8-|
Ab|-7-7-7---10p0-7-7-7---10p0-7-7-7---10p0-7-7-7---|

Bb|---------------|
Gb|---------------|
Db|-------10------| x4
Bb|---0------12-0-|
Eb|-0---0---------|
Ab|---------------|

Bb|------------------------------------------------|
Gb|------------------------------------------------|
Db|----------------------------------------------9-|
Bb|-------8------------8------------8------------x-|
eb|-7-7-7-8-10p0-7-7-7-8-10p0-7-7-7-8-10p0-7-7-7-8-|
Ab|-7-7-7---10p0-7-7-7---10p0-7-7-7---10p0-7-7-7---|

Bb|---------------|
Gb|---------------|
Db|-------10------| x4
Bb|---0------12-0-|
Eb|-0---0---------|
Ab|---------------|

Bb|------------------------------------------------|
Gb|------------------------------------------------|
Db|----------------------------------------------9-| x3
Bb|-------8------------8------------8------------x-|
eb|-7-7-7-8-10p0-7-7-7-8-10p0-7-7-7-8-10p0-7-7-7-8-|
Ab|-7-7-7---10p0-7-7-7---10p0-7-7-7---10p0-7-7-7---|

Bb|---------------------------------|
Gb|---------------------------------|
Db|-----------------------5---------|
Bb|-------8------7--------5---------|
Eb|-7-7-7-8-10p0-7-10---5-3---------|
Ab|-7-7-7---10p0---10---5-3---------|

Outro:
Bb|---------------------------------------------------------------|
Gb|---------------------------------------------------------------|
Db|---------------------------------------------------------------|
Bb|-5---5---5---7-------------------------7\------------5---------|
Eb|-3---3---3---7-----7--7\--3---0--0--0--7\--10----5---3---------|
Ab|-3---5---3---7--------------2--------------10----5---5---------|

Bb|---------------------------------------------------------------|
Gb|---------------------------------------------------------------|
Db|---------------------------------------------------------------|
Bb|-5---5---5---4-------------------------7\--------5---5---------|
Eb|-3---3---3---2-------------------------7\-/10----5---3---------|
Ab|-3---5---3---2----------------------------/10----5---5---------|

-------------------------------------
14 - Outside (live feat. Fred Durst)
-------------------------------------

Intro:
eb|----------------------------------------------|
Bb|----7--7-7-7------5--5-5--5-5-5--5-5-5--------|
Gb|--9-9--9-9-9--9---7--7-7--7-7-7--7-7-7-x-x----|
Db|--9-9--9-9-9--9---7--7-7--7-7-7--7-7-7-x-x----|
Ab|--7-7--7-7-7--7-0-5--5-5--5-5-5--5-5-5-x-x----|
Eb|----------------0-----------------------------|

eb|----------------------------------------------|
Bb|-3-3--3------3------5--5-5--5-5-5--5-5-5------|
Gb|-3-3--3------3------5--5-5--5-5-6--6-5-5------|
Db|-5-5--5------5------7--7-7--7-7-7--7-7-7------|
Ab|-5-5--5-5-5--5------7--7-7--7-7-7--7-7-7------|
Eb|-3-3--3-3-3--3-0-0--5--5-5--5-5-5--5-5-5-0-0--|

Verse:
eb|-------------------------------------|
Bb|-----------------------5--5--5--5-5--|
Gb|--9-9--9-9-9--9---7----7--7--7--7-7--|
Db|--9-9--9-9-9--9---7--7-7--7--7--7-7--|
Ab|--7-7--7-7-7--7-0-5--5-5--5--5--5-5--|
Eb|-------------------------------------|

eb|-------------------------------------|
Bb|--x-x-------------------------5------|
Gb|--x-x-------------------------5------|
Db|--x-x-5-5--5-5-5--5------7--7-7------|
Ab|------5-5--5-5-5--5------7--7-7------|
Eb|------3-3--3-3-3--3-0-0--5--5-5------|

eb|-------------------------------------|
Bb|--5-5-5--5-5-5-----------------------|
Gb|--5-5-5--5-5-5-----9-9--9-9-9--9-----|
Db|--7-7-7--7-7-7-----9-9--9-9-9--9-0-0-|
Ab|--7-7-7--7-7-7-----7-7--7-7-7--7-0-0-|
Eb|--5-5-5--5-5-5-0-0-------------------|

eb|-------------------------------------|
Bb|---5--5--5--5--5---------------------|
Gb|---7--7--7--7--7---------------------|
Db|---7--7--7--7--7----------5--5-x-x---|
Ab|---5--5--5--5--5--0-0-3h5-5--5-x-x---|
Eb|----------------------3---3--3-x-x---|

eb|-------------------------------------|
Bb|-------------5--5-5------5-5-5-------|
Gb|-------------5--5-5-x-x--5-5-5-------|
Db|-5------7--7-7--7-7-x-x--7-7-7-------|
Ab|-5------7--7-7--7-7-x-x--7-7-7-------|
Eb|-3-0-0--5--5-5--5-5-x-x--5-5-5-0-(0)-|

eb|-------------------------------------|
Bb|-------------------5--5-5--5--5--5---|
Gb|---9-9--9-x-x--9---7--7-7--7--7--7---|
Db|---9-9--9-x-x--9---7--7-7--7--7--7---|
Ab|---7-7--7-x-x--7-0-5--5-5--5--5--5---|
Eb|-------------------------------------|

eb|-----------------------------------------------------|
Bb|--5------------------------------5--5-5-5--5-5-5-----|
Gb|--7------------------------------5--5-5-5--5-5-5-----|
Db|--7------5-5--5-x-x--5---x--7--7-7--7-7-7--7-7-7-----|
Ab|--5--0-0-5-5--5-x-x--5---x--7--7-7--7-7-7--7-7-7-----|
Eb|-----0-0-3-3--3-x-x--3-0-x--5--5-5--5-5-5--5-5-5-0-0-|

eb|-----------------------------------------------------|
Bb|-------------------5--5--5-5-------------------------|
Gb|-9-9--9-x-x--9-x-7-7--7--7-7-------------------------|
Db|-9-9--9-x-x--9-x-7-7--7--7-7--0-0-5-5--5-x-x--5---7--|
Ab|-7-7--7-x-x--7-x-5-5--5--5-5--0-0-5-5--5-x-x--5---7--|
Eb|----------------------------------3-3--3-x-x--3-0-5--|

Chorus:
Chorus:
eb|--0-0--0--0-0--0-0-0-3-3--3--3--3-3-3-----|
Bb|--0-0--0--0-0--0-0-0-3-3--3--3--3-3-3-----|
Gb|--1-1--1--1-1--1-1-1-0-0--0--0--0-0-0-----|
Db|--2-2--2--2-2--2-2-2-0-0--0--0--0-0-0-----|
Ab|--2-2--2--2-2--2-2-2----------------------|
Eb|--0-0--0--0-0--0-0-0-3-3--3--3--3-3-3-----|

eb|-2-2--2-2-2--2--2-2-2---------------------|
Bb|-3-3--3-3-3--3--3-3-3-2-2--2--2--2--2-2-2-|
Gb|-2-2--2-2-2--2--2-2-2-2-2--2--2--2--2-2-2-|
Db|-0-0--0-0-0--0--0-0-0-2-2--2--2--2--2-2-2-|
Ab|----------------------0-0--0--0--0--0-0-0-|
Eb|------------------------------------------|
   
eb|--0-0--0--0-0--0-0-0-3-3--3--3--3-3-3-----|
Bb|--0-0--0--0-0--0-0-0-3-3--3--3--3-3-3-----|
Gb|--1-1--1--1-1--1-1-1-0-0--0--0--0-0-0-----|
Db|--2-2--2--2-2--2-2-2-0-0--0--0--0-0-0-----|
Ab|--2-2--2--2-2--2-2-2----------------------|
Eb|--0-0--0--0-0--0-0-0-3-3--3--3--3-3-3-----|

eb|-2-2--2-2-2--2--2-2-2---------------------|
Bb|-3-3--3-3-3--3--3-3-3-2-2--2--2--2--2-2-2-|
Gb|-2-2--2-2-2--2--2-2-2-2-2--2--2--2--2-2-2-|
Db|-0-0--0-0-0--0--0-0-0-2-2--2--2--2--2-2-2-|
Ab|----------------------0-0--0--0--0--0-0-0-|
Eb|------------------------------------------|

eb|------------------------------------------|
Bb|-------------7------5---------------------|
Gb|---9--9-x-x--9-x-x--7---------------------|
Db|---9--9-x-x--9-x-x--7---------------------|
Ab|---7--7-x-x--7-x-x--5---------------------|
Eb|-0------0-0----0-0-----(0)-0--0-0-0--0-0-0|

eb|------------------------------------------------|
Bb|-----------------------5----5--5-5-5--5-5-5-----|
Gb|-x-x-------------------5----6--6-6-6--6-6-6-----|
Db|-x-x-5-5-5-x-x--5------7----7--7-7-7--7-7-7-----|
Ab|-x-x-5-5-5-x-x--5------7----7--7-7-7--7-7-7-----|
Eb|-----3-3-3-x-x--3-0-0--5--5-5--5-5-5--5-5-5-0-0-|

eb|------------------------------------------|
Bb|-------------------5--5--5------5-5-5-----|
Gb|-9-9--9-x-x--9-x-x-7--7--7-x-x--7-7-7-----|
Db|-9-9--9-x-x--9-x-x-7--7--7-x-x--7-7-7-----|
Ab|-7-7--7-x-x--7-x-x-5--5--5-x-x--5-5-5-0-0-|
Eb|---0--0-0-0---------------------------0-0-|

eb|------------------------------------------|
Bb|-------------------5--5--5-5-5--5-5-5-----|
Gb|-------------------5--5--5-5-5--5-5-5-----|
Db|-5-5-5------5------7--7--7-7-7--7-7-7-----|
Ab|-5-5-5-5-5--5------7--7--7-7-7--7-7-7-----|
Eb|-3-3-3-0-0--3-0-0--5--5--5-5-5--5-5-5-0-0-|

eb|------------------------------------------|
Bb|------------------------------------------|
Gb|--------9--9-x-x---9-x-x--7------7--7-----|
Db|--9b----9--9-x-x---9-x-x--7------7--7-----|
Ab|--7b----7--7-x-x---7-x-x--5--(5)-5--5-5-5-|
Eb|--*---0------0-0-----0-0--------------0-0-|

eb|-----------------------------------------------------|
Bb|----------------------------5-5-5--------------------|
Gb|-7-7-7----------------------5-5-5-----------7-7-7-7--|
Db|-7-7-7-----5-5--5-5-5--5/7--7-7-7--7--7-7-7-7-7-7-7--|
Ab|-5-5-5-5-5-5-5--5-5-5--5/7--7-7-7--7--7-7-7-5-5-5-5--|
Eb|-------0-0-3-3--3-3-3--3/5--5-5-5--5--5-5-5----------|
Comments