Staind - Break Chords & Tabs

 

Break Chords & Tabs

Staind Chords & Tabs

Version: 2 Type: Tab

Break Tab

intro
e(--3--0-3-330-3--0----------3--0-3-330-3--0-3-350-)
b(--5----5-----5-------------5----5-----5----5-----)
g(--4----4-----4----4-4--4-4-4----4-----4----4-----)
d(------------------4-4--4-4-----------------------)
a(------------------4-4--4-4-----------------------)
D(-------------------------------------------------)

verse
e(--------)(----------------------)
b(--------)(----------------------)
g(--------)(--6/5-----6/5-----5-5-)
d(--0-0-1-)(--6/5-000-6/5-000-5-5-)
a(--0-0-1-)(--4/3-000-4/3-000-3-3-)
D(--0-0-1-)(------000-----000-----)
[ Tab from: http://www.guitartabs.cc/tabs/s/staind/break_tab_ver_2.html ]
chorus
e(------------------------------------)
b(------------------------------------)
g(--6--55--55--6--6/5-----6/5-----5-5-)
d(--6--55--55--6--6/5-000-6/5-000-5-5-)
a(--4--33--33--4--4/3-000-4/6-000-3-3-)
D(--------------------000-----000-----)

solo                           (x8)    (x8)    (x8)
e(----------------------3-)(--898-)(------)(------) 
b(--5-554-----5-5547-54---)(------)(--898-)(------)
g(--------2/6-------------)(------)(------)(--898-)
d(------------------------)(------)(------)(------)
a(------------------------)(------)(------)(------)
D(------------------------)(------)(------)(------)

solo continued        
e(------)     (--898-)(--15/21-21-)
b(--898-)     (------)(-----------)
g(------)     (------)(-----------)
d(------)     (------)(-----------)
a(------)     (------)(-----------)
D(------)     (------)(-----------)