Staind - Blow Away Chords & Tabs

 

Blow Away Chords & Tabs

Staind Chords & Tabs

Version: 1 Type: Tab 0 ratings
1 star 2 stars 3 stars 4 stars 5 stars
comments

Blow Away Tab

intro
Db----------------------------------------------------
Ab---------------------7------------------------------
Fb---------5h------------7-6-4------------------------
Cb---------------5h------------444--------------------
Gb------5h----5h--------------------------------------
Cb----------------------------------------------------
[ Tab from: http://www.guitartabs.cc/tabs/s/staind/blow_away_tab.html ]
verse   clean effect
------------------------------------------------------
-----7------------------------------------------------
-------7-6-4------------------------------------------
-------------444--------------------------------------
------------------------------------------------------
------------------------------------------------------

chorus   heavly distorted
------------------------------------------------------
------------------------------------------------------
----4-------------------------------------------------
----4--0--2-------------------------------------------
----2--0--0-------------------------------------------
-------0--x-------------------------------------------

   listen to the song to find out the beat.
Comments