Staind - Blow Away Chords & Tabs

 

Blow Away Chords & Tabs

Staind Chords & Tabs

Version: 1 Type: Bass Tab 0 ratings
1 star 2 stars 3 stars 4 stars 5 stars
comments

Blow Away Bass Tab

Band- Staind
Song- Blow Away

The tune I used: DGCF low to high

Tab symbols:
\\ = slide down



Intro/Verse
|-----------------------------------------------------------------|
|-----------------------------------------------------------------|
|-3-3-3-3-3-3-3-3-3-3-3-3-3-3-3-3-1-1-1-1-1-1-1-1-----------------|
|-------------------------------------------------1-1-1-1-1-1-1-1-| x6
[ Tab from: http://www.guitartabs.cc/tabs/s/staind/blow_away_btab.html ]
Chorus (all the 3\'s should be played an octave lower)
|-------------------------------------------------------------------|
|-------------------------------------------------------------------|
|-3-3-3-3-3-3-3-3-3-3-3-3-3-3-3-3-6-6-6-6-6-6-6---------------------|
|-----------------------------------------------8-6-6-6-6-4-1-1-1-1-| x4


Verse x4
Chorus


3rd Verse
|-----------------------------------------------------------------|
|-----------------------------------------------------------------|
|-3-let-ring----------------------1-let-ring----------------------|
|-------------------------------------------------1-let-ring------|


Chorus
3rd Verse
Comments