Staind - Black Rain Chords & Tabs

 

Black Rain Chords & Tabs

Staind Chords & Tabs

Version: 4 Type: Tab 0 ratings
1 star 2 stars 3 stars 4 stars 5 stars
comments

Black Rain Tab

The First Part of the Song Goes like this

]----------------------------------------------------[
]----------------------------------------------------[ Then 
]----0-----0-----0-----0-----0-----0-----0-----0-----[ start
]---4-4---4-4---4-4---4-4---4-4---4-4---4-4---4-4----[ all
]--2---2-2---2-2---2-2---2-2---2-2---2-2---2-2---2---[ over
]-0-----0-----0-----0-----3-----3-----3-----3--------[ 
[ Tab from: http://www.guitartabs.cc/tabs/s/staind/black_rain_tab_ver_4.html ]
Then the chorus is like this

]----------------------------------------------------[
]----0-----0-----0-----0-----------------------------[
]---2-2---2-2---2-2---2-2----------------------------[
]--2---2-2---2-2---2-2---2---------------------------[
]-0-----0-----3-----3--------------------------------[
]----------------------------------------------------[

VERY VERY VERY easy song but a great one!  Staind rules!
Comments