Staind - Black Rain Chords & Tabs

 

Black Rain Chords & Tabs

Staind Chords & Tabs

Version: 2 Type: Tab 0 ratings
1 star 2 stars 3 stars 4 stars 5 stars
comments

Black Rain Tab

Staind, Black Rain.
 Tabbed by ]PK[2]fray,pkfray@yahoo.com.
  
Hey... I don't speak very well english... but anyway... I love Staind... hehehe =P

The whole song is in this way but the chorus:
1)
------------------------------------------------------
------------------------------------------------------
-------0-----------0-----------0-----------0----------
-----4---4-------4---4-------4---4-------4---4--------
---2-------2---2-------2---2-------2---2-------2------
-0-----------0-----------0-----------0----------------
[ Tab from: http://www.guitartabs.cc/tabs/s/staind/black_rain_tab_ver_2.html ]
Then it changes to:
2)
------------------------------------------------------
------------------------------------------------------
-------0-----------0-----------0-----------0----------
-----4---4-------4---4-------4---4-------4---4--------
---2-------2---2-------2---2-------2---2-------2------
-3-----------3-----------3-----------3----------------

*Chorus*==>This part twice
3)
------------------------------------------------------
------------------------------------------------------
-------5-----------5-----------4-----------4----------
-----7---7-------7---7-------5---5-------5---5--------
---7-------7---7-------7---5-------5---5-------5------
-5-----------5-----------3-----------3----------------

In the second part of the song Aaron plays twice the \"1)\" (part after the 1st chorus) and keeps with the song

Well... was cool to help you out with this easy song...
ICQ=22710919

Bye!

]PK[2]fray 
:: Ultimate Guitar Archive :: 
http://www.ultimate-guitar.com 



Comments