Staind - Black Rain Chords & Tabs

 

Black Rain Chords & Tabs

Staind Chords & Tabs

Version: 1 Type: Tab 0 ratings
1 star 2 stars 3 stars 4 stars 5 stars
comments

Black Rain Tab

   
Staind, Black Rain (secret track).
 Tabbed by Kevin Brown, Mrbrown80@hotmail.com.
  
Hey, My good friend amanda showed me this so all the credit goes to her.

I'm not to sure about the changes so you can listen to the song and find out for yourself (about 18 minutes into spleen).
Standard tuning

a
------------------------------------------------------
------------------------------------------------------
--------0------------0-----------0--------------------
------4---4--------4---4-------4---4------------------
---2--------2----2-------2---2-------2----------------
-0-------------0-----------0--------------------------
[ Tab from: http://www.guitartabs.cc/tabs/s/staind/black_rain_tab.html ]
Then it changes to:
b
------------------------------------------------------
------------------------------------------------------
--------0------------0-----------0--------------------
------4---4--------4---4-------4---4------------------
---2--------2----2-------2---2-------2----------------
-3-------------3-----------3--------------------------
Like I said before, I'm not sure of the changes but it goes back and forth several times in the song

After playing through a and b several times switch to:
c
------------------------------------------------------
-------0-----------0-----------0----------------------
-----4---4-------4---4-------4---4--------------------
---2-------2---2-------2---2-------2------------------
-0-----------0-----------0----------------------------
------------------------------------------------------

d
------------------------------------------------------
-------0-----------0-----------0----------------------
-----4---4-------4---4-------4---4--------------------
---2-------2---2-------2---2-------2------------------
-3-----------3-----------3----------------------------
------------------------------------------------------
The song goes back to play a and b several times and back to c and d and back to a and b again.
 
:: Ultimate Guitar Archive :: 
http://www.ultimate-guitar.com 

 
Comments