Staind - A Flat Chords & Tabs

 

A Flat Chords & Tabs

Staind Chords & Tabs

Version: 3 Type: Tab

A Flat Tab

   
07 - A Flat
-------------

Tuning: eb Bb Gb Db Ab Db

Intro:  
eb|-----------------|------------------|
Bb|-----------------|------------------|
Gb|-----------------|---7----5----2----| 
Db|-----------------|---0----0----0----|
Ab|--5--5--5--5/6---|------------------|
Db|-----------------|------------------|

eb|-----------------------------------------|
Bb|-----------------------------------------|
Gb|--7--7-7-7-7-7/8-------------------------|
Db|--7--7-7-7-7-7/8-------------------------| x4
Ab|--5--5-5-5-5-5/6--0--3-3-3-3-3h5-3h5-----|
Db|------------------0--3-3-3-3-3h5-3h5-----|
pm      ...........     .......

Verse:
eb|------------------------------------------------------|
Bb|------------------------------------------------------|
Gb|------------------------------------------------------|
Db|------------------------------------------------------|
Ab|--3h5-3-3h5-3-3h5-3-3h5-3-3h5-3-3h5-3--3-3-3-3-3-3/4--|
Db|--3h5-3-3h5-3-3h5-3-3h5-3-3h5-3-3h5-3--5-5-5-5-5-5/6--|
pm       .     .     .     .     .     .  ..........

      (Guitar 1)
eb|-----------------|
Bb|-----------------|
Gb|--7----7/8---7---|
Db|-----------------|
Ab|-----------------|
Db|-----------------|

	      (Guitar 2)
eb|--------------------------------|
Bb|--------------------------------|
Gb|--7--7-7-7-7-7/8----------------|
Db|--7--7-7-7-7-7/8----------------|
Ab|--5--5-5-5-5-5/6--3--3h5-3-3h5--| 
Db|------------------3--3h5-3-3h5--|
pm      ...........  .      .


Verse:
eb|------------------------------------------------------|
Bb|------------------------------------------------------|
Gb|------------------------------------------------------|
Db|------------------------------------------------------|
Ab|--3h5-3-3h5-3-3h5-3-3h5-3-3h5-3-3h5-3--3-3-3-3-3-3/4--|
Db|--3h5-3-3h5-3-3h5-3-3h5-3-3h5-3-3h5-3--5-5-5-5-5-5/6--|
pm       .     .     .     .     .     .  ..........
[ Tab from: http://www.guitartabs.cc/tabs/s/staind/a_flat_tab_ver_3.html ]
eb|-----------------------------------------|
Bb|-----------------------------------------|
Gb|--7--7-7-7-7-7/8-------------------------|
Db|--7--7-7-7-7-7/8-------------------------|
Ab|--5--5-5-5-5-5/6--0--3-3-3-3-3h5-3h5-----|
Db|------------------0--3-3-3-3-3h5-3h5-----|
pm      ...........     .......

eb|------------------------|
Bb|------------------------|
Gb|------------------------|
Db|--------7-----------5---|
Ab|-----4-----------3------|
Db|--5-----------3---------|

eb|-------------------------------| 
Bb|-------------------------------|
Gb|-------------------------------|
Db|-------------------------------|
Ab|--------------------5p4--------|
Db|--7p5-6p4--X-X-X-X-------4h5---|

eb|-------------------------------|
Bb|-------------------------------|
Gb|-------------------------------|
Db|--------------------7\5--------|
Ab|--7p5-6p4--X-X-X-X--5\4--4h5---|
Db|--7p5-6p4--X-X-X-X-------4h5---|
      
Chorus:(Guitar 1)
eb|-----------------|
Bb|-----------------|
Gb|--7----7/8---7---|
Db|-----------------|
Ab|-----------------|
Db|-----------------|

		   (Guitar 2)
eb|-----------------------------------------|
Bb|-----------------------------------------|
Gb|--7--7-7-7-7-7/8-------------------------|
Db|--7--7-7-7-7-7/8-------------------------|
Ab|--5--5-5-5-5-5/6---3--3h5-3-3h5----------|
Db|-------------------3--3h5-3-3h5----------|
pm      ...........   .      .

Verse:
eb|------------------------------------------------------|
Bb|------------------------------------------------------|
Gb|------------------------------------------------------|
Db|------------------------------------------------------|
Ab|--3h5-3-3h5-3-3h5-3-3h5-3-3h5-3-3h5-3--3-3-3-3-3-3/4--| 
Db|--3h5-3-3h5-3-3h5-3-3h5-3-3h5-3-3h5-3--5-5-5-5-5-5/6--|
pm       .     .     .     .     .     .  ..........

Chorus:
eb|-----------------------------------------|
Bb|-----------------------------------------|
Gb|--7--7-7-7-7-7/8-------------------------|
Db|--7--7-7-7-7-7/8-------------------------|
Ab|--5--5-5-5-5-5/6--0--3-3-3-3-3h5-3h5-----|
Db|------------------0--3-3-3-3-3h5-3h5-----|
pm      ...........     .......

eb|------------------------------------------------------|
Bb|------------------------------------------------------|
Gb|------------------------------------------------------|
Db|------------------------------------------------------|
Ab|--3h5-3-3h5-3-3h5-3-3h5-3-3h5-3-3h5-3--3-3-3-3-3-3/4--|
Db|--3h5-3-3h5-3-3h5-3-3h5-3-3h5-3-3h5-3--5-5-5-5-5-5/6--|
pm       .     .     .     .     .     .  .........