Staind - A Flat Chords & Tabs

 

A Flat Chords & Tabs

Staind Chords & Tabs

Version: 1 Type: Tab 0 ratings
1 star 2 stars 3 stars 4 stars 5 stars
comments

A Flat Tab

Band - Staind
Song - A Flat
Tabbed By - jackal420@hotmail.com

All songs TUNED IN "DROPPED D" THEN HALF STEP DOWN - C# 
~INTRO
*BASS
A--5-------5-------5-------5-6---------I  REPEAT		 	
D----6-0-0---6-0-0---6-0-0-------------I		

gtr.
E---------------------------------I
B---------------------------------I
G---------------------------------I
D---------------------------------I  REPEAT
A-5-5-5-5-6-----------------------I			 	
D---------------------------------I		
[ Tab from: http://www.guitartabs.cc/tabs/s/staind/a_flat_tab.html ]
*VERSE:
E-------------|-------------------------------I
B-------------|-------------------------------I
G-------------|--5-/--------------------------I  
D--3/5--repeat|--3-/--------------------------I
A--3/5--------|--2-/--------------------------I
D--3/5--------|--2-/--------------------------I
        
*CHORUS:
E----------------------------------I
B----------------------------------I
G---7/8----------------------------I REPEAT
D---7/8--3--x-x-x-x---3/-----------I
A---5/6--3--x-x-x-x---3/-----------I
D--------3--x-x-x-x---3/-----------I  

BRIDGE:
gtr. 1
E------------------------I
B------------------------I
G------------------------IRepeat
D--------7---------5-----I
A-----4---------3--------I
D---5---------3----------I

gtr.2	
E----------------------I
B-------10--------8----I
G-----6---------5------I 
D---7---------5--------I repeat
A----------------------I
D----------------------I

*OUTRO:
"And I....."  "I'm not OK"
E-------------------------------------I
B-------------------------------------I
G-----------------7/6-----------------I Repeat
D--5-3--5-3--5-6--7/6--5-0--5-6-------I
A--5-3--5-3--5-6--5/4--5-0--5-6-------I
D--5-3--5-3--5-6-------5-0--5-6-------I

E---------------------------------I
B---------------------------------I
G-7-7-7-7-8-------5-4-------------I
D-7-7-7-7-8--3-5--3-2-------------I  REPEAT
A-5-5-5-5-6--3-5--3-2-------------I			 	
D------------3-5--3-2-------------I
Comments