Staind - A Flat Chords & Tabs

 

A Flat Chords & Tabs

Staind Chords & Tabs

Version: 1 Type: Bass Tab 0 ratings
1 star 2 stars 3 stars 4 stars 5 stars
comments

A Flat Bass Tab

Band- Staind
Song- A Flat
[ Tab from: http://www.guitartabs.cc/tabs/s/staind/a_flat_btab.html ]
Intro
G---6------6------6------6h7--|
D-----------------------------|play 8X
A-----------------------------|
C-----566-----566----566------|
Chorus
G---------------------------------|
D---------------------------------|^ means bend note
A----4444-------------------------|
C---0-----0-3h5-33333h5^----------|
Verse
G-------------------------------------------|
D-------------------------------------------|
A------------------------------------4444h5-|
C-3h5-3-3h5-3-3h5-3-3h5-3-3h5-3-3h5---------|
between the verse(when he sings: im okay, im okay)
G----------------------------|
D----------------------------|
A----4444h5---------3h2------|
C--0--------0-3h5-0-----5h0--|
Breakdown                       Backup
G----------------------|----------------------------|
D-------6---4----------|----------------------------|
A----3-----2-----------|--------------4h3-----------|
C--5------3------------|--7050-5h6p50-----505h6p50--|
ORDER:
Intro:8X
Chorus:4X
Verse:6X i think   then play the(Im okay part)4X
then verse again:4  1/2 X
Chorus:8X
Breakdown:6X
Backup:10X
Im okay part:4X
Verse:4X
Chorus:8X
Verse:2X
Comments