Staind - 4 Walls Chords & Tabs

 

4 Walls Chords & Tabs

Staind Chords & Tabs

Version: 2 Type: Tab 0 ratings
1 star 2 stars 3 stars 4 stars 5 stars
comments

4 Walls Tab

Allright, I searched the whole net for a good tab for that song, but havenīt
found any thatīs right. Iīm not saying that this is correct, but it is the most
correctest tab on the net. I love that song, and think its the most purest Staind
you can get.

Mike is using a baritone guitar for this song, and i guess that you donīt have one. I
play mine with a half step down, that works as well. Then youīll have to tune it in DADGBE, so itīs DROP D.

Verse: (6 Times)

E|---------------------------|-------------------------| 
B|---------------------------|-------------------------| 
G|---------------------------|-------------------------| 
D|------6p7------------------|--4----------------------| 
A|----------------4p5----0---|-------5/4---5/4--0------| 
D|-4----------4--------------|-------------------------| 

E|---------------------------|-------------------------| 
B|---------------------------|-------------------------| 
G|---------------------------|-------------------------| 
D|------6p7------------------|--4------------------4---| 
A|----------------4p5----0---|-------5/4-------2-------| 
D|-4----------4--------------|-------------2-----------| 

Chorus(

E|---------------------------|-------------------------| 
B|---------------------------|-------------------------| 
G|---12---12---12/10---------|-------------------------| 
D|---12---12---12/10---------|-------------------------| 
A|---10---10---10/8--------- |-------------------------| 
D|---10---10---10/8----------|-------------------------| 


p = Hammer on
/ = Slide

[ Tab from: http://www.guitartabs.cc/tabs/s/staind/4_walls_tab_ver_2.html ]
The thoughts from my mind
Command my lips to say I hate you
The thoughts from my mind
Command my hands to cut your silken flesh
The thoughts from my mind
Command my feet to stomp your head
The thoughts from my mind have one question
When will this ever end?

Chorus
Not much to the life I live
Same four walls
I have nothing left to give
Please take it all away
Same four walls

The thoughts from my mind
Feel the pain as rats claw at my flesh
The thoughts from my mind
Feel the joy as the needle hits my vein
The thoughts from my mind
Smell the stench as shit runs down my leg
The thoughts from my mind ask for sanity
Now for this I beg

Chorus (altered 1)
Not much to the life I live
Same four walls
I have nothing left to give
Please take it all away
Same four walls (2x)

My mind
Is like today
Damp, dark, dreary
As the rain falls outside, beating
Going the ground
I can feel it
Slipping away
Dying
Dying, around decay
Dying, like my soul
From the inside out
I can only pray
It won't be long
it won't be long now
It can't be long
It can't be long now
Help me

Where do I go from here?

The thoughts from my mind
Command my lips to say I hate you
The thoughts from my mind
Command my hands to cut your silken flesh
The thoughts from my mind
Command my feet to stomp your head
The thoughts from my mind have one question
When will I be dead?

Chorus (altered 2)
This is the life I have to live
Same four walls
I have nothing left to give
Please take it all away
This is the life I have to live
Same four walls
I have nothing left to give
Please take it all away
Same four walls (4x)

There's nothing left for me....

(gunshot)

Lyrics from www.Staindsouls.com
Comments