Staind - 4 Walls Chords & Tabs

 

4 Walls Chords & Tabs

Staind Chords & Tabs

Version: 1 Type: Tab 0 ratings
1 star 2 stars 3 stars 4 stars 5 stars
comments

4 Walls Tab

HEY IVE BEEN WORKING ON THIS TAB FOR 4EVER & THE GUY BE4 ME, NO REASON 2 PUT YOU
DOWN BUT THAT IS NOT RIGHT.SORRY. IM SUPPOSED TO BE GROUNDED THATS WHY I HAVE NOT
MY EMAIL. STAIND ROCKS SO SUPPORT & DONT COPY THEIR CD'S, BUY IT!


DROP "D" TUNING     M=MUTE     B=BEND


   -------------------------------------------------
   -------------------------------------------------        
   -------------------------------------------------
   ---------6/7-----------------4-------------------
   -------O----------4/5-----O------O-----5/4-------
   ----------------O-----------------O--------2-4---

[ Tab from: http://www.guitartabs.cc/tabs/s/staind/4_walls_tab.html ]
   -------------------------------------------------
   -------------------------------------------------
   -------------------------------------------------
   ----6/7-------------4----------------------------
   --0---------4/5---0---0------4-------------------
   ----------O-------------0--0M--------------------

ALL A COUPLE OF TIMES, IM UNSURE OF THE BEAT NOW CUZ I CANT LISTEN 2 IT NOW


   CHORUS
   --------------------------------------------
   --------------------------------------------
   ---------------------------------11-----9---
   --------11-----------9-----------11-----9---
   --------9------------7-----------9------7---
   --------9------------7------5B---9------7---




THERE YOU GO! IT IS FUN TO PLAY, SRRY IM REALLY IN A HURRY. SOUNDS GOOD HUH!
Comments