Staind - 14 Shades Of Grey Chords & Tabs

 

14 Shades Of Grey Chords & Tabs

Staind Chords & Tabs

Version: 2 Type: Tab 0 ratings
1 star 2 stars 3 stars 4 stars 5 stars
comments

14 Shades Of Grey Tab

   
Band- Staind
Album- 14 Shades Of Grey

1.PRICE TO PLAY

Verse:
|---------------------------------------------|
|---------------------------------------------|
|---------------------------------------------|
|-444-2--444--2--44--2--444--2--444--2--4/555-|
|-444-2--444--2--44--2--444--2--444--2--4/555-|
|-444-2--444--2--44--2--444--2--444--2--4/555-|

Pre-Chorus
|----------------------------------|
|----------------------------------|
|----------------------------------|
|-4--2--4--2--4-2--4--2--4--2--4/5-|
|-4--2--4--2--4-2--4--2--4--2--4/5-|
|-4--2--4--2--4-2--4--2--4--2--4/5-|

Chorus: I'm not going to give you the strumming pattern. Just listen to the album...you'll get it.
|-------------------|
|-------------------|
|-------------------|
|-14---16---18---19-|
|-12---14---16---16-|
|-12---14---16---16-|

Bridge:
|--------------------------------|
|--------------------------------|
|--------------------------------|
|-4--4-4-4--4-4--4-4--4-4--4--22-|
|-4--4-4-4--4-4--4-4--4-4--4--22-|
|-4--4-4-4--4-4--4-4--4-4--4--22-|

2.HOW ABOUT YOU

 Intro:
   Gtr. I
Bb|------------------------------------------------------------------------------|
Gb|-----------6-------------------------------------6---4--6---------------------|
Db|-------7------------------7---7---9----------6------------------7---7---------|
Ab|-----5---5-----5--------7---7--------7-----4---4--------------5---5-----5-----|
Db|------------------------------------------------------------------------------|
Ab|------------------------------------------------------------------------------|
  |										 |
  |Gtr. V 									 |
Eb|--5--5-5-5-5-5-5-5---7--7-7-7-7-7-7-7---4--4-4-4-4-4-4-4---5--5-5-5-5-5-5-5---|
Bb|--7--7-7-7-7-7-7-7---9--9-9-9-9-9-9-9---5--5-5-5-5-5-5-5---7--7-7-7-7-7-7-7---|
Gb|--7--7-7-7-7-7-7-7---9--9-9-9-9-9-9-9---6--6-6-6-6-6-6-6---7--7-7-7-7-7-7-7---|
Db|--7--7-7-7-7-7-7-7---9--9-9-9-9-9-9-9---6--6-6-6-6-6-6-6---7--7-7-7-7-7-7-7---|
Ab|--5--5-5-5-5-5-5-5---7--7-7-7-7-7-7-7---4--4-4-4-4-4-4-4---5--5-5-5-5-5-5-5---|
Eb|------------------------------------------------------------------------------|


   Verse:
   Gtr. II
Bb|------------------------------------------------------------------------------|
Gb|------------------------------------------------------------------------------|
Db|--0--0-0-0-0-0-0-0---2--2-2-2-2-2-2-2----------------------0--0-0-0-0-0-0-0---|
Ab|--0--0-0-0-0-0-0-0---2--2-2-2-2-2-2-2----------------------0--0-0-0-0-0-0-0---|
Db|--0--0-0-0-0-0-0-0---2--2-2-2-2-2-2-2---6--6-6-6-6-6-6-6---0--0-0-0-0-0-0-0---|
Ab|----------------------------------------4--4-4-4-4-4-4-4----------------------|
  |										 |
  |Gtr. V 									 |
Eb|--5--5-5-5-5-5-5-5---7--7-7-7-7-7-7-7---4--4-4-4-4-4-4-4---5--5-5-5-5-5-5-5---|
Bb|--7--7-7-7-7-7-7-7---9--9-9-9-9-9-9-9---5--5-5-5-5-5-5-5---7--7-7-7-7-7-7-7---|
Gb|--7--7-7-7-7-7-7-7---9--9-9-9-9-9-9-9---6--6-6-6-6-6-6-6---7--7-7-7-7-7-7-7---|
Db|--7--7-7-7-7-7-7-7---9--9-9-9-9-9-9-9---6--6-6-6-6-6-6-6---7--7-7-7-7-7-7-7---|
Ab|--5--5-5-5-5-5-5-5---7--7-7-7-7-7-7-7---4--4-4-4-4-4-4-4---5--5-5-5-5-5-5-5---|
Eb|------------------------------------------------------------------------------|


   Pre-Chorus:
   Gtr. I
Bb|-------------------------------------|
Gb|--------6---4--6---------------------|
Db|----6------------------7---7---------|
Ab|--4---4--------------5---5-----5-----|
Db|-------------------------------------|
Ab|-------------------------------------|
  |					|
  |Gtr. II				|
Bb|-------------------------------------|
Gb|-------------------------------------|
Db|--------------------0--0-0-0-0-0-0-0-|
Ab|--------------------0--0-0-0-0-0-0-0-|
Db|--6--6-6-6-6-6-6-6--0--0-0-0-0-0-0-0-|
Ab|--4--4-4-4-4-4-4-4-------------------|
  |					|
  |Gtr. V				|
Eb|--4--4-4-4-4-4-4-4--5--5-5-5-5-5-5-5-|
Bb|--5--5-5-5-5-5-5-5--7--7-7-7-7-7-7-7-|
Gb|--6--6-6-6-6-6-6-6--7--7-7-7-7-7-7-7-|
Db|--6--6-6-6-6-6-6-6--7--7-7-7-7-7-7-7-|
Ab|--4--4-4-4-4-4-4-4--5--5-5-5-5-5-5-5-|
Eb|-------------------------------------|


   Chorus:
   Gtr. III
Bb|-------------------------------------------------------|
Gb|-------------------------------------------------------|
Db|---7------------2----------(6)-----------0-------------|
Ab|---7------------2----------(4)-----------0-------------|
Db|---7------------2-----------6------------0-------------|
Ab|----------------------------4--------------------------|
  |							  |
  |Gtr. IV						  |
Bb|--10-----------17----------14-----------15---14---10---|
Gb|---x------------x-----------x------------x----x----x---|
Db|---7-----------14----------11-----------12---11----7---|
Ab|-------------------------------------------------------|
Db|-------------------------------------------------------|
Ab|-------------------------------------------------------|
  |							  |
  |Gtr. V						  |
Eb|---0------------0-----------4------------5-------------|
Bb|---2------------0-----------5------------7-------------|
Gb|---2------------1-----------6------------7-------------|
Db|---2------------2-----------6------------7-------------|
Ab|---0------------2-----------4------------5-------------|
Eb|----------------0--------------------------------------|

   Bridge:
   Gtr. II
Bb|--------------------------------------------------------------------|
Gb|--------6-7--------------------------------------4------------------|
Db|----7---------------7---9---7-6-----------6---7----7-6---------7----|
Ab|--5---5-----------7---7---------7-------4---4----------------5---5--|
Db|--------------------------------------------------------------------|
Ab|--------------------------------------------------------------------|
   (on the second time through, Gtr. I plays a simile of the intro)

3.SO FAR AWAY

Tune 1/2 step down (Eb Ab Db Gb Bb Eb)


[Chords: (Em7(022033),Cadd9(x32033),G(320033),D(x00232)]


Intro

|-7-------7-8-------8-|-10-------10-5-------5-|
|---8---8-----8---8---|----8---8------7---7---|
|-----9---------9-----|------9----------7-----|
|---------------------|-----------------------|   (x4)
|---------------------|-----------------------|
|---------------------|-----------------------|
  Em7       Cadd9       G           D


Verse 1

            Em7  Cadd9   G           D          Em7
 This is my life,   it's not what it was before
           Cadd9         G          D            Em7   Cadd9
 all these feelings I've shared and these are my dreams
      G         D           Em7        Cadd9          G  D
 that I'd never lived before, somebody shake me cause I, I must be


|-8-------8-8-------8-|-8-------8-5-------|
|---8---8-----8---8---|---8---8-----7-----|
|-----9---------9-----|-----9---------7---|
|---------------------|-------------------|
|---------------------|-------------------|
|---------------------|-------------------|
  Cadd9                           D
  sleeping...


Chorus

 G                D                 Em7          Cadd9
   Now that we're here it's so far away, all the struggle we thought was in vain
 G            D                 Em7              Cadd9
   All the mistakes one life contained, they all finally start to go away
 G                D                 Em7       Cadd9
   Now that we're here it's so far away and I feel like I can face the day
 G          D                 Em7              Cadd9
   I can forgive and I'm not ashamed to be the person that I am today


Post-chorus 1:  strum Cadd9 for 1 measure


Verse 2

              Em7  Cadd9     G          D           Em7
 These are my words     that I've never said before
             Cadd9  G       D            Em7   Cadd9
 I think I'm doing okay and this is the smile
      G          D           Em7        Cadd9          G   D        Cadd9    D
 that I've never shown before, somebody shake me cause I, I must be sleeping


[Repeat chorus]


Post-chorus 1:  strum Cadd9 for 2 measure


Bridge

         Cadd9 D  Em7 G   Cadd9  D     Em7   G
 I'm so afraid of waking, please don't shake me
  Cadd9 D  Em7 G   Cadd9  D     Em7   G
 Afraid of waking, please don't shake me


[Repeat chorus]


Ending:  strum cadd9 for 4 measure

4.YESTERDAY

Intro:
   Gtr. I
Bb|--7-(7)(7)(7)(7)(7)(7)(7)(7)-------------------------------------------|
Gb|--6-(6)(6)(6)(6)(6)(6)(6)(6)----14-(14)(14)(14)(14)(14)(14)(14)(14)----|
Db|--4-(4)(4)(4)(4)(4)(4)(4)(4)----14-(14)(14)(14)(14)(14)(14)(14)(14)----|
Ab|--------------------------------12-(12)(12)(12)(12)(12)(12)(12)(12)----|
Db|-----------------------------------------------------------------------|
Ab|-----------------------------------------------------------------------|


   Pre-Chorus:
   Gtr. I
Bb|--7-(7)(7)(7)(7)(7)(7)(7)(7)-------------------------------------------|
Gb|--6-(6)(6)(6)(6)(6)(6)(6)(6)----14-(14)(14)(14)(14)(14)(14)(14)(14)----|
Db|--4-(4)(4)(4)(4)(4)(4)(4)(4)----14-(14)(14)(14)(14)(14)(14)(14)(14)----|
Ab|--------------------------------12-(12)(12)(12)(12)(12)(12)(12)(12)----|
Db|-----------------------------------------------------------------------|
Ab|-----------------------------------------------------------------------|
  |									  |
  |Gtr. II								  |
Bb|--x-x-x-x-x--x-x--x-x-x-x--x-x---x-x-x-x-x--x-x--x-x-x-x-x-x-x--x-x----|
Gb|--x-x-x-x-x--x-x--x-x-x-x--x-x---x-x-x-x-x--x-x--x-x-x-x-x-x-x--x-x----|
Db|--x-x-x-x-x--x-x--x-x-x-x--x-x---x-x-x-x-x--x-x--x-x-x-x-x-x-x--x-x----|
Ab|--x-x-x-x-x--x-x--x-x-x-x--x-x---x-x-x-x-x--x-x--x-x-x-x-x-x-x--x-x----|
Db|-----------------------------------------------------------------------|
Ab|-----------------------------------------------------------------------|


   Chorus:
   Gtr. III
Bb|-------------------------------|---------------------------------------|
Gb|-------------------------------|---------------------------------------|
Db|--4-------0-------7-------2----|---4-------0------7-------2------------|
Ab|--4-------0-------7-------2----|---4-------0------7-------2------------|
Db|--4-------0-------7-------2----|---4-------0------7-------2------------|
Ab|-------------------------------|---------------------------------------|
  |									  |
  |Gtr. IV								  |
Bb|--7-------5------10-------9----|---7------17-----14------12------------|
Gb|-------------------------------|---------------------------------------|
Db|-------------------------------|---------------------------------------|
Ab|-------------------------------|---------------------------------------|
Db|-------------------------------|---------------------------------------|
Ab|-------------------------------|---------------------------------------|

   Bridge: (<3> = natural harmonic)
   Gtr. III
Bb|-------------------------------------------------------------------------------------|
Gb|-------------------------------------------------------------------------------------|
Db|--4-4-4------------4-4-4------------4-4-4------------7-6-6-7-9-9-9-9-9-7-7-7-6-6-6---|
Ab|--4-4-4------------4-4-4------------4-4-4------------7-6-6-7-9-9-9-9-9-7-7-7-6-6-6---|
Db|--4-4-4------------4-4-4------------4-4-4------------7-6-6-7-9-9-9-9-9-7-7-7-6-6-6---|
Ab|-------------------------------------------------------------------------------------|

Bb|-------------------------------------------------------------------------------------|
Gb|-------------------------------------------------------------------------------------|
Db|--4-4-4------------4-4-4-<3><3><3>--4-4-4-<3><3><3>--7-6-6-7-9-9-9-9-9-7-7-7-6-6-6---|
Ab|--4-4-4------------4-4-4-<3><3><3>--4-4-4-<3><3><3>--7-6-6-7-9-9-9-9-9-7-7-7-6-6-6---|
Db|--4-4-4-<3><3><3>--4-4-4-<3><3><3>--4-4-4-<3><3><3>--7-6-6-7-9-9-9-9-9-7-7-7-6-6-6---|
Ab|-------------------------------------------------------------------------------------|

5.FRAY

Intro:
   Gtr. I
Bb|------------------------------------------------------------------------|
Gb|------------------------------------------------------------------------|
Db|--4~~~---/9-----9---(9)-7---9---/12---\9~~-----/12---\9------(/12)------|
Ab|--x-------x-----x---(x)-x---x-----x----x---------x----x--------(x)------|
Db|--4~~~---/9-----9---(9)-7---9---/12---\9~~-----/12---\9------(/12)------|
Ab|------------------------------------------------------------------------|

Bb|------------------------------------------------------------------------|
Gb|------------------------------------------------------------------------|
Db|--2~~--2h4~~~~~---4---2h4-----4-----7----7/9-----9------7/9-----9----2--|
Ab|--x----x-x--------x---x-x-----x-----x----x-x-----x------x-x-----x----x--|
Db|--2~~--2h4~~~~~---4---2h4-----4-----7----7/9-----9------7/9-----9----2--|
Ab|------------------------------------------------------------------------|


   Verse One:
   Gtr. I
Bb|-----------------------------------------------|
Gb|-----------------------------------------------|
Db|-------12--------12----11----11--------11------|
Ab|----------9(9)------9---9-------9---------9----|
Db|--9---------9-----------9---------9---------9--|
Ab|-----------------------------------------------|


   Chorus:
   Gtr. II
Bb|------------------------------------------------------------------|
Gb|------------------------------------------------------------------|
Db|--9--------------------7------------------------------------------|
Ab|--9--------------------7---------(7)------------------(5)---------|
Db|--9--------------------7----------9--------------------7----------|
Ab|----------------------------------7--------------------5----------|
  |								     |   Play
  |Gtr. III							     |   Twice
Bb|------------------------------------------------------------------|
Gb|-11------11------------9---7---6--4-------------------(2)---------|
Db|--x-------x------------x---x---x--x-------------------(x)---------|
Ab|--9-------9------------7---5---4--2-------------------(0)---------|
Db|------------------------------------------------------------------|
Ab|------------------------------------------------------------------|

   Gtr. II
Bb|------------------------------------------------------------------|
Gb|------------------------------------------------------------------|
Db|--9--------------------7------------------------------------------|
Ab|--9--------------------7---------(7)------------------(5)---------|
Db|--9--------------------7----------9--------------------7----------|
Ab|----------------------------------7--------------------5----------|
  |								     |
  |Gtr. III							     |
Bb|------------------------------------------------------------------|
Gb|-11------11-----------19--17--21-21-23---19-----------------------|
Db|--x-------x------------x---x---x--x--x----x-----------------------|
Ab|--9-------9-----------17--15--19-19-21---17-----------------------|
Db|------------------------------------------------------------------|
Ab|------------------------------------------------------------------|

   Gtr. II
Bb|------------------------------------------------------------------|
Gb|------------------------------------------------------------------|
Db|--9--------------------7------------------------------------------|
Ab|--9--------------------7---------(7)------------------(5)---------|
Db|--9--------------------7----------9--------------------7----------|
Ab|----------------------------------7--------------------5----------|
  |								     |
  |Gtr. III							     |
Bb|------------------------------------------------------------------|
Gb|-11------11------------9---7---6--4-------------------(2)---------|
Db|--x-------x------------x---x---x--x-------------------(x)---------|
Ab|--9-------9------------7---5---4--2-------------------(0)---------|
Db|------------------------------------------------------------------|
Ab|------------------------------------------------------------------|


   Post Chorus Guitar Solo:
   Gtr. IV
Bb|------------------------------------------------------------------------|
Gb|------------------------------------------------------------------------|
Db|--\9~~~----7p5h7--5\2----/4-------/4------------------------------------|
Ab|-------------------------------------------7-----5-4-2----/5----\2---0--|
Db|------------------------------------------------------------------------|
Ab|------------------------------------------------------------------------|


   Bridge:
   Gtr. II
Bb|------------------------------------------------------------------------|
Gb|------------------------------------------------------------------------|
Db|------------------------------------------------------------------------|
Ab|-(5)---------(2)------------------(3)---------(0)-----------------------|
Db|--7-----------4--------------------5-----------2------------------------|
Ab|--5-----------2--------------------3-----------0------------------------|
  |									   |
  |Gtr. III								   |
Bb|------15-14--12-------------------13----------10------------------------|
Gb|-------x--x---x--------------------x-----------x------------------------|
Db|------12-11---9-------------------10-----------7------------------------|
Ab|------------------------------------------------------------------------|
Db|------------------------------------------------------------------------|
Ab|------------------------------------------------------------------------|

6.ZOE JANE

Intro/verse:
 E---------------------------------|
 B--4---4---6---6---7---7---7---7--|
bG---0---0---0---0---0---0---0---0-|
 D---------------------------------|
 A-2---2---4---4---6---6---6---6---|
 E---------------------------------|

 Chorus:
 guitar 1 (clean):
 E----------------------4---4---4---4----------------------------------|
 B--11---11---11---11-------------------7---7---7---7---2---2---2---2--|
bG----0----0----0----0---0---0---0---0---0---0---0---0---0---0---0---0-|
 D---------------------------------------------------------------------|
 A-9----9----9----9----4---4---4---4---6---6---6---6---4---4---4---4---|
 E---------------------------------------------------------------------|

 guitar 2 (distorted)
 E---------------------|
 B---------------------|
 G---------------------|
 D-4-------------------|
 A-4--4--6--2----------|
 E-2--4--6--2----------|
[ Tab from: http://www.guitartabs.cc/tabs/s/staind/14_shades_of_grey_tab_ver_2.html ]
 Here's how you play it:
 Intro/verse x8
 Chorus x3
 Intro/verse x4
 Chorus x6
 Intro/verse x4
 Chorus (without heavy part) x5

 Ending:
 E-----
 B-----
bG-----
 D-----
 A-2/9-
 E-----

7.FILL ME UP

 Main Riff:
   Gtr. I
Bb|-----------------------------------------------------------|
Gb|-----------------------------------------------------------|
Db|-----------------------------------------------------------|
Ab|-----------------------------------------------------------|
Db|--7/9-9-9--9\7-x-xx--5--5-5-5---5/7-7/9-9--xx-xx--7--7-7---|
Ab|--5/7-7-7--7\5-x-xx--3--3-3-3---3/5-5/7-7--xx-xx--5--5-5---|


   Verse One:
   Gtr. II
Bb|-------------------------------------------------|
Gb|-------------------------------------------------|
Db|--7h9---9-----7h9---9-----7h9---9-----5h7----7---|
Ab|--7---7-------7---7-------7---7-------5----5-----|
Db|-------------------------------------------------|
Ab|-------------------------------------------------|
  |						    |
  |Gtr. III					    |
Bb|--12--------(12)--------(12)--------(12)---------|
Gb|---x---------(x)---------(x)---------(x)---------|
Db|---9---------(9)---------(9)---------(9)---------|
Ab|-------------------------------------------------|
Db|-------------------------------------------------|
Ab|-------------------------------------------------|


   Chorus Progression:
   Gtr. IV
Bb|-----------------------------------------------|
Gb|-----------------------------------------------|
Db|--10----------2----------0---------------------|
Ab|--10----------2----------0---------(3)---------|
Db|--10----------2----------0----------5----------|
Ab|------------------------------------3----------|
  |						  |
  |Gtr. V					  |
Bb|--10---8---7--8---7---5--3---------(3)-----5---|
Gb|---x---x---x--x---x---x--x---------(x)-----x---|
Db|---7---5---4--5---4---2--0---------(0)-----2---|
Ab|-----------------------------------------------|
Db|-----------------------------------------------|
Ab|-----------------------------------------------|


   Verses Two & Three Piano Riff:
   Gtr. VI
Bb|----------10----12--------12-10----------------|
Gb|--11-9-12-------11--------------12----11-------|
Db|-----------------9--------------------12-------|
Ab|--------------------------------------12-------|
Db|-----------------------------------------------|
Ab|-----------------------------------------------|

8.LAYNE

Tuning: Ab Db Ab Db Gb Bb

Intro/Verse
----------------------------------------|-------------------------------------|
----------------------------------------|-------------------------------------|
-14\13-13-13-13/14-14-14-11-11-11-11-11-|-14\13-13-13-13/14-14-14-9-9-9-9-9---|
-0-----0--0--0-----0--0--0--0--0--0--0--|-------------------------0-0-0-0-0---|
----------------------------------------|-------------------------------------|
----------------------------------------|-------------------------------------|


Pre-Chorus
------------------------------------------------------------------------------|
------------------------------------------------------------------------------|
-----7-----7---------5-------5------7-----7---------5--------7----------------|
---7---7-----7-----5---5---5------7---7-----7-----5---5---5/-7----------------|
-7-------7-----7-5-------5------7-------7-----7-5-------5----7----------------|
------------------------------------------------------------------------------|

Chorus
Guitar 2
-14-14\----10-10----------------17-17-----------------------------------------|
------------------------------------------------------------------------------|
-11-11\----7--7-----------------14-14-----------------------------------------|
------------------------------------------------------------------------------|
------------------------------------------------------------------------------|
------------------------------------------------------------------------------|

Guitar 1 (this is the only one played live)
------------------------------------------------------------------------------|
------------------------------------------------------------------------------|
--------------------5-5-5-x---------------------------------------------------|
-12-12-12-----------5-5-5-x---------------------------------------------------|
-14-14-14--14-14\---5-5-5-x-7-----7-------------------------------------------|
-12-12-12--12-12\-----------5-----5-------------------------------------------|


Bridge
Guitar 2
------------------------------------------------------------------------------|
-5-5-5-5-----12\7-7-7-7-7------9--7--5--7---9----7--5--7----------------------|
------------------------------------------------------------------------------|
-3-3-3-3-----10\5-5-5-5-5------7--5--3--5---7----5--3--5----------------------|
------------------------------------------------------------------------------|
------------------------------------------------------------------------------|

Guitar 1
------------------------------------------------------------------------------|
------------------------------------------------------------------------------|
-----------------------12-12-12-12--14-14-14----------------------------------|
-----------------------10-10-10-10--12-12-12----------------------------------|
-10---10-10--12--12-12-10-10-10-10--12-12-12--12--12-12--12-------------------|
-8----8--8---10--10-10-10-10-10-10--12-12-12--10--10-10--10-------------------|


Interlude/Outro
------------------------------------------------------------------------------|
------------------------------------------7-----------------------------------|
---7-----7-----9--7------10-10-9------5-5-5-----------------------------------|
-----7-----7--------7----7--7--7------5-5-------------------------------------|
-7-----7-----7--------7-------------5--------0--------------------------------|
------------------------------------------------------------------------------|

9.FALLING DOWN

Intro:
   Gtr. I
Bb|---------------------------------------------|-----------------------------------|
Gb|------------------------7------4------4------|-------------------------7------9--|
Db|--5-----5------5-5-5-5--5--(5)-5--(5)-5-(5)--|-11-----11--11-11-11-11-12-----14--|
Ab|--5-----5------5-5-5-5--5--(5)-5--(5)-5-(5)--|--9------9---9--9--9--9--9--(9)-9--|
Db|--5-----5------5-5-5-5--5--(5)-5--(5)-5-(5)--|--9------9---9--9--9--9--9--(9)-9--|
Ab|---------------------------------------------|-----------------------------------|


   Verses:
   Gtr. II
Bb|-------------------------------(0)----(0)-----|
Gb|-------------------------7------4------4------|
Db|--5------5------5-5-5-5--5--(5)-5--(5)-5-(5)--|
Ab|--5------5------5-5-5-5--5--(5)-5--(5)-5-(5)--|
Db|--5------5------5-5-5-5--5--(5)-5--(5)-5-(5)--|
Ab|----------------------------------------------|

Bb|---------------------------------------------|
Gb|---------------------------------------------|
Db|-11-----11--11-11-11-11-12-----14-----14-----|
Ab|--9------9---9--9--9--9--9--(9)-9--(9)-9-(9)-|
Db|--9------9---9--9--9--9--9--(9)-9--(9)-9-(9)-|
Ab|---------------------------------------------|
   Chorus:
   Gtr. II
Bb|-----------------------------------------------------------------|
Gb|-----------------------------------------------------------------|
Db|--2--------------------------------------------------------------|
Ab|--2-------------------(3)------------------(0)-------------------|
Db|--2--------------------5--------------------2--------------------|
Ab|-----------------------3--------------------0--------------------|

  |     |
  |Gtr. III     |
Bb|--7--------------------5-----------------------------------------|
Gb|--x----------7---------x----------4---------2--------------------|
Db|--4----------x---------2----------x---------x--------------------|
Ab|-------------5--------------------2---------0--------------------|
Db|-----------------------------------------------------------------|
Ab|-----------------------------------------------------------------|

   Bridge A:
   Gtr. IV
Bb|-----------------------------------------------------------------|
Gb|---------4---------------4-------------9-------------------------|
Db|-----------5---------------5-------------10----------7-----------|
Ab|----2---------------2-------------7-------------5------5---------|
Db|--2---2-----------2---2---------7---7---------5---5--------------|
Ab|-----------------------------------------------------------------|


   Bridge B:
   Gtr. II
Bb|------------------------------------------------------------------------------|
Gb|--------------4p0----------------4p0----------------4p0----------------4p0----|
Db|--2--xxx-2--------0--2--xxx-2--------0--5--xxx-5--------0--5--xxx-5--------0--|
Ab|--2--xxx-2-----------2--xxx-2-----------5--xxx-5-----------5--xxx-5-----------|
Db|--2--xxx-2-----------2--xxx-2-----------5--xxx-5-----------5--xxx-5-----------|
Ab|------------------------------------------------------------------------------|


10.REALITY

 Intro:
   Gtr. I
Bb|------------------------------------------------------------------------------------------|
Gb|----------------------------------------------------------------------------(crescendo)---|
Db|-----4-----5---4--4/5-5----------4------4--4h5p4--------5---4--------0--------------------|
Ab|--2-(2)-2-(2)-----2---2--------0---0----5--5--(5)--5----5--(5)--5----0------0-0-0-0-0-0---|
Db|--2-(2)-2-(2)-----2---2------0----------5--5--(5)--5----5--(5)-(5)---0------0-0-0-0-0-0---|
Ab|------------------------------------------------------------------------------------------|
    PM    PM                   PM...  PM......                                 PM..........


   Verses:
   Gtr. I
Bb|------------------------------------------------------------------------------------------|
Gb|------------------------------------------------------------------------------------------|
Db|-----4-----5---4--4/5-5----------4------4--4h5p4--------5---4--------0-----(0)-----(0_----|
Ab|--2-(2)-2-(2)-----2---2--------0---0----5--5--(5)--5----5--(5)--5----0-----(0)-----(0)----|
Db|--2-(2)-2-(2)-----2---2------0----------5--5--(5)--5----5--(5)-(5)---0-----(0)-----(0)----|
Ab|------------------------------------------------------------------------------------------|
  | PM    PM                   PM...  PM......                          PM.................  |
  |											     |
  |Gtr. II										     |
Bb|--8------------------------------------15---------------------------10--------------------|
Gb|--x-(let ring)--------------------------x-(let ring)-----------------x-(let ring)---------|
Db|--5------------------------------------12----------------------------7--------------------|
Ab|------------------------------------------------------------------------------------------|
Db|------------------------------------------------------------------------------------------|
Ab|------------------------------------------------------------------------------------------|


   Chorus:
   Gtr. III
Bb|------------------------------------------------------------------------------------------|
Gb|--5---------------------------------------------------------------------------------------|
Db|--5--------------------5------------------------------------------------------------------|
Ab|--3--------------------5-------------------(3)------------------(2)-----------------------|
Db|-----------------------5--------------------5--------------------4------------------------|
Ab|--------------------------------------------3--------------------2------------------------|
  |											     |
  |Gtr. IV										     |
Bb|--------x----7--8-----------x----3--5-------8----7----5----3-----7--------8---------7-----|
Gb|--------x----x--x-----------x----x--x-------x----x----x----x-----x--------x---------x-----|
Db|--------x----4--5-----------x----0--2-------5----4----2----0-----4--------5---------4-----|
Ab|------------------------------------------------------------------------------------------|
Db|------------------------------------------------------------------------------------------|
Ab|------------------------------------------------------------------------------------------|


   Bridge:
   Gtr. III
Bb|------------------------------------------------------------------------------------------|
Gb|-----------------------5------------------------------------------------------------------|
Db|--2--------------------5--------------------7--------------------9------------------------|
Ab|--2--------------------3--------------------7--------------------9------------------------|
Db|--2-----------------------------------------7--------------------9------------------------|
Ab|------------------------------------------------------------------------------------------|
  |											     |
  |Gtr. IV										     |
Bb|-------8----5-----------------3----5------------------------------------------------------|
Gb|-------x----x-----------------x----x---------------5----4-----------------4----5----------|
Db|-------5----2-----------------0----2---------------x----x-----------------x----x----------|
Ab|---------------------------------------------------3----2-----------------2----3----------|
Db|------------------------------------------------------------------------------------------|
Ab|------------------------------------------------------------------------------------------|

11.TONIGHT

 Intro:
   Gtr. I
Bb|-----(0)------(0)---(0)-----------(0)--------(0)------(0)----(0)--------|
Gb|-----(0)------(0)-----(0)---------(0)--------(0)------(0)------(0)------|
Db|-2---------5------10------10\7-----------2---------5------10------10/12-|
Ab|-2---------5------10------10\7-----------2---------5------10------10/12-|
Db|-2---------5------10------10\7-----------2---------5------10------10/12-|
Ab|------------------------------------------------------------------------|


Bb|-----(0)------(0)---(0)-----------(0)--------(0)------(0)-----|
Gb|-----(0)------(0)-----(0)---------(0)--------(0)------(0)---7-|
Db|-2---------5------10------10\7-----------2---------5--------7-|
Ab|-2---------5------10------10\7-----------2---------5--------5-|
Db|-2---------5------10------10\7-----------2---------5--------0-|
Ab|--------------------------------------------------------------|


   Verses:
   Gtr. II
Bb|-----------------------------------<7>-<5>-<7>--|
Gb|--------4-----------------5---------------------|
Db|----------4-5p4---------5------0----------------|
Ab|--2-------------2----3---------0----------------|
Db|--2----------------------------0----------------|
Ab|------------------------------------------------|

Bb|-----------------------------------<7>-<9>-<5>--|
Gb|--------4-----------------5---------------------|
Db|----------4-5p4---------5------0----------------|
Ab|--2-------------2----3---------0----------------|
Db|--2----------------------------0----------------|
Ab|------------------------------------------------|


Bb|-----------------------------------<7>-<5>-<7>--|
Gb|--------4-----------------5---------------------|
Db|----------4-5p4---------5------0----------------|
Ab|--2-------------2----3---------0----------------|
Db|--2----------------------------0----------------|
Ab|------------------------------------------------|

Bb|-------------------------3----------------------|
Gb|--------4----------------2----------------------|
Db|----------4-5p4----------0----------------------|
Ab|--2-------------2--------0----------------------|
Db|--2----------------------0----------------------|
Ab|------------------------------------------------|

   Chorus:
   Gtr. I
Bb|--------------------------------------------------|
Gb|--------------------------------------------------|
Db|--10-------7----------------------0---------------|
Ab|--10-------7------(2)-------------0---------------|
Db|--10-------7-------4--------------0---------------|
Ab|-------------------2------------------------------|
  |      |
  |Gtr. III   |
Bb|--5--8---3---5--(5)------------------------5---3-3----5--3--|
Gb|--x--x---x---x--(x)--4---------4----7------x---x-x----x--x--|
Db|--2--5---0---2--(2)--x---------x----x------2---0-0----2--0--|
Ab|------------------2------------2----5-----------------------|
Db|------------------------------------------------------------|
Ab|------------------------------------------------------------|

   Bridge:
   Gtr. II
Bb|-----0--------------0--------0----------|
Gb|-------0--------------0--------0--------|
Db|--9---------12----------5---------5-5\2-|
Ab|--7---------10----------3---------3-3\0-|
Db|----------------------------------------|
Ab|----------------------------------------|

Bb|-----------0-------------0---------0-------------|
Gb|-------------0-------------0---------0-----------|
Db|-2-----9---------12----------5---------5-5/7--7--|
Ab|-0-----7---------10----------3---------3-3/5--5--|
Db|-------------------------------------------------|
Ab|-------------------------------------------------|


Bb|-----0-----------0--------0-------------------0-----------0-----|
Gb|-------0-----------0--------0-------------------0-----------0-7-|
Db|--9---------12-------5---------5-5\2--2----9--------12--------7-|
Ab|--7---------10-------3---------3-3\0--0----7--------10--------5-|
Db|----------------------------------------------------------------|
Ab|----------------------------------------------------------------|

12.COULD IT BE

Intro/Chorus

|---------------------------------------------------|
|---------------------------------------------------|
|-------------------------12----12-12-12--12--------|
|--12-12-12-12--12--12----x-----x--x--x---x---------|
|--10-10-10-10--10--10----10----10-10-10--10--------|
|--0--0--0--0---0---0-----0-----0--0--0---0---------|

|------------------------------------------|
|------------------------------------------|
|--12-12-12-12-12-12--7-7--7--7--7--7------|
|--9--9--9--9--9--9---5-5--5--5--5--5------|
|--7--7--7--7--7--7---5-5--5--5--5--5------|
|--0--0--0--0--0--0---0-0--0--0--0--0------|


Verse

|---------------------------------------|
|---------------------------------------|
|---------11------------12--------------|
|----7-------7------9------9------------|
|--7---7-------7--9---9------9----------|
|---------------------------------------|

Bridge

|-----------------------------------------|
|-----------------------------------------|
|-----------------------------------------|
|-12-12-12-12-12-12-12-9-9-9-9-9-9-9-9----|
|-10-10-10-10-10-10-10-7-7-7-7-7-7-7-7----|
|-10-10-10-10-10-10-10-7-7-7-7-7-7-7-7----|

|-----------------------------------------|
|-----------------------------------------|
|-----------------------------------------|
|-12-12-12-12-12-12-12-9-9-9-9-9-7-7-7----|
|-10-10-10-10-10-10-10-7-7-7-7-7-5-5-5----|
|-10-10-10-10-10-10-10-7-7-7-7-7-5-5-5----|

13.BLOWN AWAY

Don't Know

14.INTRO

Don't Know
Comments