Staind - 14 Shades Of Grey Chords & Tabs

 

14 Shades Of Grey Chords & Tabs

Staind Chords & Tabs

Version: 1 Type: Tab 0 ratings
1 star 2 stars 3 stars 4 stars 5 stars
comments

14 Shades Of Grey Tab

   
Band - Staind
Album - 14 Shades Of Grey
-------------------------

01 - Price To Play
02 - How About You
03 - So Far Away
04 - Yesterday
05 - Fray
06 - Zoe Jane
07 - Fill Me Up
08 - Layne
09 - Falling Down
10 - Reality
11 - Tonight
12 - Could It Be
13 - Blow Away
14 - Intro

--------------------
 01 - Price To Play
--------------------

Key:
/ - slide up
\ - slide down
h - hammer-on
p - pull-off
~ - vibrato
+ - harmonic
x - Mute note

Intro/verse:
e |--------------------------------------------------------------------------|
B |--------------------------------------------------------------------------|
E |--------------------------------------------------------------------------|
B |--2-2-0-0--2-2-0-0--------------------------------------------------------| repeat
F#|--2-2-0-0--2-2-0-0--------------------------------------------------------|
B |--2-2-0-0--2-2-0-0--------------------------------------------------------|

Prechorus:
e |--------------------------------------------------------------------------|
B |--------------------------------------------------------------------------|
E |--------------------------------------------------------------------------|
B |--2-0--2-0--2-0-----------------------------------------------------------| repeat
F#|--2-0--2-0--2-0--Keap Repeating-------------------------------------------|
B |--2-0--2-0--2-0-----------------------------------------------------------|

Chorus:
e |--------------------------------------------------------------------------|
B |--8x--8x------------------------------------------------------------------|
E |--------------------------------------------------------------------------|
B |--12--14--16-16-16-16-16-17-17-19-19--------------------------------------| repeat
F#|--10--12--14-14-14-14-14-14-14-14-14--------------------------------------|
B |--10--12--14-14-14-14-14-14-14-14-14--------------------------------------|

Bridge:
e |--------------------------------------------------------------------------|
B |--------------------------------------------------------------------------|
E |-------------------7-7----------------------------------------------------|
B |--2-2-2-2-2-2-2-2--7-7----------------------------------------------------| repeat
F#|--2-2-2-2-2-2-2-2--5-5----------------------------------------------------|
B |--2-2-2-2-2-2-2-2---------------------------------------------------------|

--------------------
 02 - How About You
--------------------

Tuning: Bb Gb Db Ab Db Ab (Mike Mushok electric)
	eb Bb Gb Db Ab eb (Aaron Lewis acoustic)

(Guitar 1) - Clean
(Guitar 2) - Slighty Distorted
(Guitar 3) - Distorted (Rhythm)
(Guitar 4) - Distorted (Lead)
(Guitar 5) - Acoustic

	
   Intro:			   (Guitar 1)
Bb|------------------------------------------------------------------------------|
Gb|-----------6-------------------------------------6---4--6---------------------|
Db|-------7------------------7---7---9----------6------------------7---7---------|
Ab|-----5---5-----5--------7---7--------7-----4---4--------------5---5-----5-----|
Db|------------------------------------------------------------------------------|
Ab|------------------------------------------------------------------------------|
  |										 |
  |				   (Guitar 5)                                    |
eb|--5--5-5-5-5-5-5-5---7--7-7-7-7-7-7-7---4--4-4-4-4-4-4-4---5--5-5-5-5-5-5-5---|
Bb|--7--7-7-7-7-7-7-7---9--9-9-9-9-9-9-9---5--5-5-5-5-5-5-5---7--7-7-7-7-7-7-7---|
Gb|--7--7-7-7-7-7-7-7---9--9-9-9-9-9-9-9---6--6-6-6-6-6-6-6---7--7-7-7-7-7-7-7---|
Db|--7--7-7-7-7-7-7-7---9--9-9-9-9-9-9-9---6--6-6-6-6-6-6-6---7--7-7-7-7-7-7-7---|
Ab|--5--5-5-5-5-5-5-5---7--7-7-7-7-7-7-7---4--4-4-4-4-4-4-4---5--5-5-5-5-5-5-5---|
Eb|------------------------------------------------------------------------------|
  
   Verse:			   (Guitar 2)
Bb|------------------------------------------------------------------------------|
Gb|------------------------------------------------------------------------------|
Db|--0--0-0-0-0-0-0-0---2--2-2-2-2-2-2-2----------------------0--0-0-0-0-0-0-0---|
Ab|--0--0-0-0-0-0-0-0---2--2-2-2-2-2-2-2----------------------0--0-0-0-0-0-0-0---|
Db|--0--0-0-0-0-0-0-0---2--2-2-2-2-2-2-2---6--6-6-6-6-6-6-6---0--0-0-0-0-0-0-0---|
Ab|----------------------------------------4--4-4-4-4-4-4-4----------------------|
  |										 |
  | 				   (Guitar 5)					 |
eb|--5--5-5-5-5-5-5-5---7--7-7-7-7-7-7-7---4--4-4-4-4-4-4-4---5--5-5-5-5-5-5-5---|
Bb|--7--7-7-7-7-7-7-7---9--9-9-9-9-9-9-9---5--5-5-5-5-5-5-5---7--7-7-7-7-7-7-7---|
Gb|--7--7-7-7-7-7-7-7---9--9-9-9-9-9-9-9---6--6-6-6-6-6-6-6---7--7-7-7-7-7-7-7---|
Db|--7--7-7-7-7-7-7-7---9--9-9-9-9-9-9-9---6--6-6-6-6-6-6-6---7--7-7-7-7-7-7-7---|
Ab|--5--5-5-5-5-5-5-5---7--7-7-7-7-7-7-7---4--4-4-4-4-4-4-4---5--5-5-5-5-5-5-5---|
Eb|------------------------------------------------------------------------------|

   Prechorus:
		(Guitar 1)
Bb|-------------------------------------|
Gb|--------6---4--6---------------------|
Db|----6------------------7---7---------|
Ab|--4---4--------------5---5-----5-----|
Db|-------------------------------------|
Ab|-------------------------------------|
  |					|
  |		(Guitar 2)		|
Bb|-------------------------------------|
Gb|-------------------------------------|
Db|--------------------0--0-0-0-0-0-0-0-|
Ab|--------------------0--0-0-0-0-0-0-0-|
Db|--6--6-6-6-6-6-6-6--0--0-0-0-0-0-0-0-|
Ab|--4--4-4-4-4-4-4-4-------------------|
  |					|
  |		(Guitar 5)		|
eb|--4--4-4-4-4-4-4-4--5--5-5-5-5-5-5-5-|
Bb|--5--5-5-5-5-5-5-5--7--7-7-7-7-7-7-7-|
Gb|--6--6-6-6-6-6-6-6--7--7-7-7-7-7-7-7-|
Db|--6--6-6-6-6-6-6-6--7--7-7-7-7-7-7-7-|
Ab|--4--4-4-4-4-4-4-4--5--5-5-5-5-5-5-5-|
Eb|-------------------------------------|

  
   
   Chorus:		(Guitar 3)
Bb|-------------------------------------------------------|
Gb|-------------------------------------------------------|
Db|---7------------2----------(6)-----------0-------------|
Ab|---7------------2----------(4)-----------0-------------|
Db|---7------------2-----------6------------0-------------|
Ab|----------------------------4--------------------------|
  |							  |
  |			(Guitar 4)			  |
Bb|--10-----------17----------14-----------15---14---10---|
Gb|---x------------x-----------x------------x----x----x---|
Db|---7-----------14----------11-----------12---11----7---|
Ab|-------------------------------------------------------|
Db|-------------------------------------------------------|
Ab|-------------------------------------------------------|
  |							  |
  |			(Guitar 5)			  |
eb|---0------------0-----------4------------5-------------|
Bb|---2------------0-----------5------------7-------------|
Gb|---2------------1-----------6------------7-------------|
Db|---2------------2-----------6------------7-------------|
Ab|---0------------2-----------4------------5-------------|
Eb|----------------0--------------------------------------|

   Bridge:			(Guitar 2)
Bb|--------------------------------------------------------------------|
Gb|--------6-7--------------------------------------4------------------|
Db|----7---------------7---9---7-6-----------6---7----7-6---------7----|
Ab|--5---5-----------7---7---------7-------4---4----------------5---5--|
Db|--------------------------------------------------------------------|
Ab|--------------------------------------------------------------------|
   (on the second time through, Gtr. I plays a simile of the intro)

------------------
 03 - So Far Away
------------------

Tuning:
(Guitar 1) (acoustic) - down a half step (eb Bb Gb Db Ab eb)
(Guitar 2) (electric) - standard
(Guitar 3) (electric) - standard (only during chorus)

Intro: (x4)
	(Guitar 1)
    Em     C     G     D
eb|-3------0-----3-----2-|
Bb|-3------3-----3-----3-|
Gb|-0------0-----0-----2-|
Db|-2------2-----0-----0-|
Ab|-2------3-----2-----x-|
Eb|-0------x-----3-----x-|

				(Guitar 2)
e|---------------------------------------------------------------------------|
B|-11-------------11-12-------------12-14-------------14---------------------|
G|-------11----11----------11----11----------11----11-------13--10--11-------|
D|----------13----------------13----------------13---------------------------|
A|---------------------------------------------------------------------------|
E|---------------------------------------------------------------------------|

e|----------------------------------------------------------16--(13)--(14)---|
B|-11-------------11-12-------------12-14-------------14---------------------|
G|-------11----11----------11----11----------11----11------------------------|
D|----------13----------------13----------------13---------------------------|
A|---------------------------------------------------------------------------|
E|---------------------------------------------------------------------------|

Verse: (x4)
	(Guitar 1)
    Em     C     G     D
eb|-3------0-----3-----2-|
Bb|-3------3-----3-----3-|
Gb|-0------0-----0-----2-|
Db|-2------2-----0-----0-|
Ab|-2------3-----2-----x-|
Eb|-0------x-----3-----x-|

				(Guitar 2)
e|---------------------------------------------------------------------------|
B|-11-------------11-12-------------12-14-------------14---------------------|
G|-------11----11----------11----11----------11----11-------13--10--11-------|
D|----------13----------------13----------------13---------------------------|
A|---------------------------------------------------------------------------|
E|---------------------------------------------------------------------------|

e|----------------------------------------------------------16--(13)--(14)---|
B|-11-------------11-12-------------12-14-------------14---------------------|
G|-------11----11----------11----11----------11----11------------------------|
D|----------13----------------13----------------13---------------------------|
A|---------------------------------------------------------------------------|
E|---------------------------------------------------------------------------|

 Prechorus: (x1)
     (Guitar 1)
    Em     C     
eb|-3------0-------|
Bb|-3------3-------|
Gb|-0------0-------|
Db|-2------2-------|
Ab|-2------3-------|
Eb|-0------x-------|

			    (Guitar 2)
e|--------------------------------------------------------------|
B|-11-------------11-12-------------12-12-------------12--------|
G|-------11----11----------11----11----------11----11-------13--|
D|----------13----------------13----------------13--------------|
A|--------------------------------------------------------------|
E|--------------------------------------------------------------|

Chorus: (x4)
	   (Guitar 1)
    G      D      Em     C
eb|-3------2------3------0--|
Bb|-3------3------3------3--|
Gb|-0------2------0------0--|
Db|-0------0------2------2--|
Ab|-2------x------2------3--|
Eb|-3------x------0------x--|

      (Guitar 2 w/dist.)
    Gb     Db     Emb    B
e|--2------4------6------2--|
B|--2------6------7------4--|
G|--3------6------8------4--|
D|--4------6------8------4--|
A|--4------4------6------2--|
E|--2-----------------------|



	(Guitar 3 w/dist.)
e|-------------------------------|
B|-(11)-----------(11)------(7)--|
G|--11---13---15---10---15---8---|
D|---x----x----x----x----x---x---|
A|---9---11---13----8---13---6---|
E|-------------------------------|

Verse: (x4)
	(Guitar 1)
    Em     C     G     D
eb|-3------0-----3-----2-|
Bb|-3------3-----3-----3-|
Gb|-0------0-----0-----2-|
Db|-2------2-----0-----0-|
Ab|-2------3-----2-----x-|
Eb|-0------x-----3-----x-|

				(Guitar 2)
e|---------------------------------------------------------------------------|
B|-11-------------11-12-------------12-14-------------14---------------------|
G|-------11----11----------11----11----------11----11-------13--10--11-------|
D|----------13----------------13----------------13---------------------------|
A|---------------------------------------------------------------------------|
E|---------------------------------------------------------------------------|

e|----------------------------------------------------------16--(13)--(14)---|
B|-11-------------11-12-------------12-14-------------14---------------------|
G|-------11----11----------11----11----------11----11------------------------|
D|----------13----------------13----------------13---------------------------|
A|---------------------------------------------------------------------------|
E|---------------------------------------------------------------------------|

 Prechorus: (x1)
     (Guitar 1)
    Em     C     
eb|-3------0-------|
Bb|-3------3-------|
Gb|-0------0-------|
Db|-2------2-------|
Ab|-2------3-------|
Eb|-0------x-------|

			    (Guitar 2)
e|--------------------------------------------------------------|
B|-11-------------11-12-------------12-12-------------12--------|
G|-------11----11----------11----11----------11----11-------13--|
D|----------13----------------13----------------13--------------|
A|--------------------------------------------------------------|
E|--------------------------------------------------------------|

Chorus: (x4)
	   (Guitar 1)
    G      D      Em     C
eb|-3------2------3------0--|
Bb|-3------3------3------3--|
Gb|-0------2------0------0--|
Db|-0------0------2------2--|
Ab|-2------x------2------3--|
Eb|-3------x------0------x--|

      (Guitar 2 w/dist.)
    Gb     Db     Emb    B
e|--2------4------6------2--|
B|--2------6------7------4--|
G|--3------6------8------4--|
D|--4------6------8------4--|
A|--4------4------6------2--|
E|--2-----------------------|



	(Guitar 3 w/dist.)
e|-------------------------------|
B|-(11)-----------(11)------(7)--|
G|--11---13---15---10---15---8---|
D|---x----x----x----x----x---x---|
A|---9---11---13----8---13---6---|
E|-------------------------------|

Bridge: (x4)
	  (Guitar 1)
    G      C      D      Em
eb|-3------0------2------3--|
Bb|-3------3------3------3--|
Gb|-0------0------2------0--|
Db|-0------2------0------2--|
Ab|-2------3------x------2--|
Eb|-3------x------x------0--|

Chorus: (x4)
	   (Guitar 1)
    G      D      Em     C
eb|-3------2------3------0--|
Bb|-3------3------3------3--|
Gb|-0------2------0------0--|
Db|-0------0------2------2--|
Ab|-2------x------2------3--|
Eb|-3------x------0------x--|

      (Guitar 2 w/dist.)
    Gb     Db     Emb    B
e|--2------4------6------2--|
B|--2------6------7------4--|
G|--3------6------8------4--|
D|--4------6------8------4--|
A|--4------4------6------2--|
E|--2-----------------------|



	(Guitar 3 w/dist.)
e|-------------------------------|
B|-(11)-----------(11)------(7)--|
G|--11---13---15---10---15---8---|
D|---x----x----x----x----x---x---|
A|---9---11---13----8---13---6---|
E|-------------------------------|

      (Guitar 2 w/dist.)
    Gb     B      Db     Emb
e|--2------2------4------6--|
B|--2------4------6------7--|
G|--3------4------6------8--|
D|--4------4------6------8--|
A|--4------2------4------6--|
E|--2-----------------------|

Outro:
(Guitar 1)
eb|--0--|
Bb|--1--|
Gb|--0--|
Db|--2--| repeat
Ab|--3--|
Eb|--x--|

----------------
 04 - Yesterday
----------------

Tuning: Bb Gb Db Ab Db Ab

(Guitar 1) - Distorted (w/flanger and stereo delay)
(Guitar 2) - Slighty Dirty Electric
(Guitar 3) - Distorted (Rhythm)
(Guitar 4) - Distorted (Lead)

   Intro:			(Guitar 1)
Bb|--7-(7)(7)(7)(7)(7)(7)(7)(7)-------------------------------------------|
Gb|--6-(6)(6)(6)(6)(6)(6)(6)(6)----14-(14)(14)(14)(14)(14)(14)(14)(14)----|
Db|--4-(4)(4)(4)(4)(4)(4)(4)(4)----14-(14)(14)(14)(14)(14)(14)(14)(14)----|
Ab|--------------------------------12-(12)(12)(12)(12)(12)(12)(12)(12)----|
Db|-----------------------------------------------------------------------|
Ab|-----------------------------------------------------------------------|


   Pre-Chorus:			(Guitar 1)
Bb|--7-(7)(7)(7)(7)(7)(7)(7)(7)-------------------------------------------|
Gb|--6-(6)(6)(6)(6)(6)(6)(6)(6)----14-(14)(14)(14)(14)(14)(14)(14)(14)----|
Db|--4-(4)(4)(4)(4)(4)(4)(4)(4)----14-(14)(14)(14)(14)(14)(14)(14)(14)----|
Ab|--------------------------------12-(12)(12)(12)(12)(12)(12)(12)(12)----|
Db|-----------------------------------------------------------------------|
Ab|-----------------------------------------------------------------------|
  |									  |
  |				(Guitar 2)				  |
Bb|--x-x-x-x-x--x-x--x-x-x-x--x-x---x-x-x-x-x--x-x--x-x-x-x-x-x-x--x-x----|
Gb|--x-x-x-x-x--x-x--x-x-x-x--x-x---x-x-x-x-x--x-x--x-x-x-x-x-x-x--x-x----|
Db|--x-x-x-x-x--x-x--x-x-x-x--x-x---x-x-x-x-x--x-x--x-x-x-x-x-x-x--x-x----|
Ab|--x-x-x-x-x--x-x--x-x-x-x--x-x---x-x-x-x-x--x-x--x-x-x-x-x-x-x--x-x----|
Db|-----------------------------------------------------------------------|
Ab|-----------------------------------------------------------------------|


   Chorus:			(Guitar 3)
Bb|-------------------------------|---------------------------------------|
Gb|-------------------------------|---------------------------------------|
Db|--4-------0-------7-------2----|---4-------0------7-------2------------|
Ab|--4-------0-------7-------2----|---4-------0------7-------2------------|
Db|--4-------0-------7-------2----|---4-------0------7-------2------------|
Ab|-------------------------------|---------------------------------------|
  |									  |
  |				(Guitar 4)				  |
Bb|--7-------5------10-------9----|---7------17-----14------12------------|
Gb|-------------------------------|---------------------------------------|
Db|-------------------------------|---------------------------------------|
Ab|-------------------------------|---------------------------------------|
Db|-------------------------------|---------------------------------------|
Ab|-------------------------------|---------------------------------------|

   Bridge: (<3> - natural harmonic)	(Guitar 3)
Bb|-------------------------------------------------------------------------------------|
Gb|-------------------------------------------------------------------------------------|
Db|--4-4-4------------4-4-4------------4-4-4------------7-6-6-7-9-9-9-9-9-7-7-7-6-6-6---|
Ab|--4-4-4------------4-4-4------------4-4-4------------7-6-6-7-9-9-9-9-9-7-7-7-6-6-6---|
Db|--4-4-4------------4-4-4------------4-4-4------------7-6-6-7-9-9-9-9-9-7-7-7-6-6-6---|
Ab|-------------------------------------------------------------------------------------|

Bb|-------------------------------------------------------------------------------------|
Gb|-------------------------------------------------------------------------------------|
Db|--4-4-4------------4-4-4-<3><3><3>--4-4-4-<3><3><3>--7-6-6-7-9-9-9-9-9-7-7-7-6-6-6---|
Ab|--4-4-4------------4-4-4-<3><3><3>--4-4-4-<3><3><3>--7-6-6-7-9-9-9-9-9-7-7-7-6-6-6---|
Db|--4-4-4-<3><3><3>--4-4-4-<3><3><3>--4-4-4-<3><3><3>--7-6-6-7-9-9-9-9-9-7-7-7-6-6-6---|
Ab|-------------------------------------------------------------------------------------|

-----------
 05 - Fray
-----------

Tuning: Bb Gb Db Ab Db Ab

(Guitar 1) - Clean w/Chorus
(Guitar 2) - Distorted (Rhythm)
(Guitar 3) - Distorted (Lead)
(Guitar 4) - Distorted (w/panning effect and e-Bow)

Intro:				(Guitar 1)
Bb|------------------------------------------------------------------------|
Gb|------------------------------------------------------------------------|
Db|--4~~~---/9-----9---(9)-7---9---/12---\9~~-----/12---\9------(/12)------|
Ab|--x-------x-----x---(x)-x---x-----x----x---------x----x--------(x)------|
Db|--4~~~---/9-----9---(9)-7---9---/12---\9~~-----/12---\9------(/12)------|
Ab|------------------------------------------------------------------------|

Bb|------------------------------------------------------------------------|
Gb|------------------------------------------------------------------------|
Db|--2~~--2h4~~~~~---4---2h4-----4-----7----7/9-----9------7/9-----9----2--|
Ab|--x----x-x--------x---x-x-----x-----x----x-x-----x------x-x-----x----x--|
Db|--2~~--2h4~~~~~---4---2h4-----4-----7----7/9-----9------7/9-----9----2--|
Ab|------------------------------------------------------------------------|

   Verse:	     (Guitar 1)
Bb|-----------------------------------------------|
Gb|-----------------------------------------------|
Db|-------12--------12----11----11--------11------|
Ab|----------9(9)------9---9-------9---------9----|
Db|--9---------9-----------9---------9---------9--|
Ab|-----------------------------------------------|

   Chorus:		     (Guitar 2)
Bb|------------------------------------------------------------------|
Gb|------------------------------------------------------------------|
Db|--9--------------------7------------------------------------------|
Ab|--9--------------------7---------(7)------------------(5)---------|
Db|--9--------------------7----------9--------------------7----------|
Ab|----------------------------------7--------------------5----------|
  |								     |\x2
  |			     (Guitar 3)				     |/
Bb|------------------------------------------------------------------|
Gb|-11------11------------9---7---6--4-------------------(2)---------|
Db|--x-------x------------x---x---x--x-------------------(x)---------|
Ab|--9-------9------------7---5---4--2-------------------(0)---------|
Db|------------------------------------------------------------------|
Ab|------------------------------------------------------------------|

			     (Guitar 2)	
Bb|------------------------------------------------------------------|
Gb|------------------------------------------------------------------|
Db|--9--------------------7------------------------------------------|
Ab|--9--------------------7---------(7)------------------(5)---------|
Db|--9--------------------7----------9--------------------7----------|
Ab|----------------------------------7--------------------5----------|
  |								     |
  |			     (Guitar 3)				     |
Bb|------------------------------------------------------------------|
Gb|-11------11-----------19--17--21-21-23---19-----------------------|
Db|--x-------x------------x---x---x--x--x----x-----------------------|
Ab|--9-------9-----------17--15--19-19-21---17-----------------------|
Db|------------------------------------------------------------------|
Ab|------------------------------------------------------------------|

			     (Guitar 2)	
Bb|------------------------------------------------------------------|
Gb|------------------------------------------------------------------|
Db|--9--------------------7------------------------------------------|
Ab|--9--------------------7---------(7)------------------(5)---------|
Db|--9--------------------7----------9--------------------7----------|
Ab|----------------------------------7--------------------5----------|
  |								     |   
  |			     (Guitar 3)				     |
Bb|------------------------------------------------------------------|
Gb|-11------11------------9---7---6--4-------------------(2)---------|
Db|--x-------x------------x---x---x--x-------------------(x)---------|
Ab|--9-------9------------7---5---4--2-------------------(0)---------|
Db|------------------------------------------------------------------|
Ab|------------------------------------------------------------------|


   Solo:			(Guitar 4)
Bb|------------------------------------------------------------------------|
Gb|------------------------------------------------------------------------|
Db|--\9~~~----7p5h7--5\2----/4-------/4------------------------------------|
Ab|-------------------------------------------7-----5-4-2----/5----\2---0--|
Db|------------------------------------------------------------------------|
Ab|------------------------------------------------------------------------|


   Bridge:			(Guitar 2)
Bb|------------------------------------------------------------------------|
Gb|------------------------------------------------------------------------|
Db|------------------------------------------------------------------------|
Ab|-(5)---------(2)------------------(3)---------(0)-----------------------|
Db|--7-----------4--------------------5-----------2------------------------|
Ab|--5-----------2--------------------3-----------0------------------------|
  |									   |
  |				(Guitar 3)                                 | 
Bb|------15-14--12-------------------13----------10------------------------|
Gb|-------x--x---x--------------------x-----------x------------------------|
Db|------12-11---9-------------------10-----------7------------------------|
Ab|------------------------------------------------------------------------|
Db|------------------------------------------------------------------------|
Ab|------------------------------------------------------------------------|

---------------
 06 - Zoe Jane
---------------

Key:
xxx - play 'note' with heavy damping
 /  - slide up
 \  - slide down
pm  - palm mute
< > - harmonic
 h  - hammer on

 Tuning: eb Bb Gb Db Ab eb

(Guitar 1) - Acoustic
(Guitar 2) - Electric (clean into/verse, heavy distortion chorus)

 Intro:			(Guitar 1)
eb|-------------------------|-------------------------|
Bb|---5-----5-----7-----7---|---8-----8-----8-----8---|
Gb|-----0-----0-----0-----0-|-----0-----0-----0-----0-|
Db|-------------------------|-------------------------| x4
Ab|-3-----3----/5-----5-----|/7-----7-----7-----7----\|
Eb|-------------------------|-------------------------|

			(Guitar 2)
eb|-------------------------|-------------------------|
Bb|----<12>--------<12>-----|----<5>---------<12>-----|
Gb|------<12>---------------|------<5>---------<12>---|
Db|------------------<7>----|-------------------------|
Ab|-------------------------|--------<7>---------<7>--|
Eb|-------------------------|-------------------------|

eb|-------------------------|-------------------------|
Bb|----<12>--------<12>-----|----<5>-------------<12>-|
Gb|------<12>---------------|------<5>-------<12>-----|
Db|------------------<7>----|-------------------------|
Ab|-------------------------|--------<7>--------------|
Eb|-------------------------|-------------------------|

eb|<12>---------------------|-------------------------|
Bb|----<12>--------<12>-----|----<5>---------<12>-----|
Gb|------<12>--------<7>----|------<5>---------<12>---|
Db|-------------------------|-------------------------|
Ab|-------------------------|--------<7>---------<7>--|
Eb|-------------------------|-------------------------|

eb|-------------------------|-------------------------|
Bb|----<12>--------<12>-----|----<5>-------------<12>-|
Gb|------<12>---------------|------<5>-------<12>-----|
Db|------------------<7>----|-------------------------|
Ab|-------------------------|--------<7>--------------|
Eb|-------------------------|-------------------------|


Verse:			(Guitar 1)
eb|-------------------------|-------------------------|
Bb|---5-----5-----7-----7---|---8-----8-----8-----8---|
Gb|-----0-----0-----0-----0-|-----0-----0-----0-----0-|
Db|-------------------------|-------------------------| x4
Ab|-3-----3----/5-----5-----|/7-----7-----7-----7----\|
Eb|-------------------------|-------------------------|

			(Guitar 2)
eb|<12>---------------------|-------------------------|
Bb|----<12>--------<12>-----|----<5>---------<12>-----|
Gb|------<12>---------------|------<5>---------<12>---|
Db|------------------<7>----|-------------------------|
Ab|-------------------------|--------<7>---------<7>--|
Eb|-------------------------|-------------------------|

eb|-------------------------|-------------------------|
Bb|----<12>--------<12>-----|----<5>-------------<12>-|
Gb|------<12>---------------|------<5>-------<12>-----|
Db|------------------<7>----|-------------------------|
Ab|-------------------------|--------<7>--------------|
Eb|-------------------------|-------------------------|

eb|<12>---------------------|-------------------------|
Bb|----<12>--------<12>-----|----<5>---------<12>-----|
Gb|------<12>--------<7>----|------<5>---------<12>---|
Db|-------------------------|-------------------------|
Ab|-------------------------|--------<7>---------<7>--|
Eb|-------------------------|-------------------------|

eb|-------------------------|-------------------------|
Bb|----<12>--------<12>-----|----<5>-------------<12>-|
Gb|------<12>---------------|------<5>-------<12>-----|
Db|------------------<7>----|-------------------------|
Ab|-------------------------|--------<7>--------------|
Eb|-------------------------|-------------------------|


Chorus:			(Guitar 1)
eb|-------------------------|-------------------------|
Bb|---12----12----12----12--|---10----10----10----10--|
Gb|-----0-----0-----0-----0-|-----0-----0-----0-----0-|
Db|-------------------------|-------------------------|
Ab|-10----10----10----10----|\9-----9-----9-----9-----| \
Eb|-------------------------|-------------------------|  \
                                                          |x3
eb|-------------------------|-------------------------|  /
Bb|---8-----8-----8-----8---|---5-----5-----5-----5---| /
Gb|-----0-----0-----0-----0-|-----0-----0-----0-----0-|
Db|-------------------------|-------------------------| (play on first)
Ab|\7-----7-----7-----7-----|\3-----3-----3-----3----/| (2 times only)
Eb|-------------------------|-------------------------|

			(Guitar 2)
eb|-------------------------|-------------------------|
Bb|-------------------------|-------------------------|
Gb|-------------------------|-2-----2-2---4h5-4---2---|
Db|/5-----5-5---5-----5-5---|-4-----4-4---4---4---4---|
Ab|/5-----5-5---5-----5-5---|-4-----4-4---------------| \
Eb|/3-----3-3---3-----3-3---|-2-----2-2---------------|  \
                                                          |x3
eb|-------------------------|-------------------------|  /
Bb|-------------------------|-------------------------| /
Gb|-------------------------|-5----(5-5---5-----5-5)--|
Db|-5-----5-5---5-----5-5---|-5----(5-5---5-----5-5)--| (strum on first)
Ab|-2-----2-2---2-----2-2---|-3----(3-3---3-----3-3)--| (2 times only)
Eb|-0-----0-0---0-----0-0---|-0----(0-0---0-----0-0)--|


Verse:			(Guitar 1)
eb|-------------------------|-------------------------|
Bb|---5-----5-----7-----7---|---8-----8-----8-----8---|
Gb|-----0-----0-----0-----0-|-----0-----0-----0-----0-|
Db|-------------------------|-------------------------| x4
Ab|-3-----3----/5-----5-----|/7-----7-----7-----7----\|
Eb|-------------------------|-------------------------|

			(Guitar 2)
eb|-------------------------|-------------------------|
Bb|----<12>--------<12>-----|----<5>---------<12>-----|
Gb|------<12>---------------|------<5>---------<12>---|
Db|------------------<7>----|-------------------------|
Ab|-------------------------|--------<7>---------<7>--|
Eb|-------------------------|-------------------------|

eb|-------------------------|-------------------------|
Bb|----<12>--------<12>-----|----<5>-------------<12>-|
Gb|------<12>---------------|------<5>-------<12>-----|
Db|------------------<7>----|-------------------------|
Ab|-------------------------|--------<7>--------------|
Eb|-------------------------|-------------------------|

eb|<12>---------------------|-------------------------|
Bb|----<12>--------<12>-----|----<5>---------<12>-----|
Gb|------<12>--------<7>----|------<5>---------<12>---|
Db|-------------------------|-------------------------|
Ab|-------------------------|--------<7>---------<7>--|
Eb|-------------------------|-------------------------|

eb|-------------------------|-------------------------|
Bb|----<12>--------<12>-----|----<5>-------------<12>-|
Gb|------<12>---------------|------<5>-------<12>-----|
Db|------------------<7>----|-------------------------|
Ab|-------------------------|--------<7>--------------|
Eb|-------------------------|-------------------------|


Chorus:			(Guitar 1)
eb|-------------------------|-------------------------|
Bb|---12----12----12----12--|---10----10----10----10--|
Gb|-----0-----0-----0-----0-|-----0-----0-----0-----0-|
Db|-------------------------|-------------------------|
Ab|-10----10----10----10----|\9-----9-----9-----9-----| \
Eb|-------------------------|-------------------------|  \
                                                          |x3
eb|-------------------------|-------------------------|  /
Bb|---8-----8-----8-----8---|---5-----5-----5-----5---| /
Gb|-----0-----0-----0-----0-|-----0-----0-----0-----0-|
Db|-------------------------|-------------------------| (play on first)
Ab|\7-----7-----7-----7-----|\3-----3-----3-----3----/| (2 times only)
Eb|-------------------------|-------------------------|

			(Guitar 2)
eb|-------------------------|-------------------------|
Bb|-------------------------|-------------------------|
Gb|-------------------------|-2-----2-2---4h5-4---2---|
Db|/5-----5-5---5-----5-5---|-4-----4-4---4---4---4---|
Ab|/5-----5-5---5-----5-5---|-4-----4-4---------------| \
Eb|/3-----3-3---3-----3-3---|-2-----2-2---------------|  \
                                                          |x3
eb|-------------------------|-------------------------|  /
Bb|-------------------------|-------------------------| /
Gb|-------------------------|-5----(5-5---5-----5-5)--|
Db|-5-----5-5---5-----5-5---|-5----(5-5---5-----5-5)--| (strum on first)
Ab|-2-----2-2---2-----2-2---|-3----(3-3---3-----3-3)--| (2 times only)
Eb|-0-----0-0---0-----0-0---|-0----(0-0---0-----0-0)--|


Bridge:			(Guitar 1)
eb|-------------------------|-------------------------|
Bb|---12----12----12----12--|---10----10----10----10--|
Gb|-----0-----0-----0-----0-|-----0-----0-----0-----0-|
Db|-------------------------|-------------------------|
Ab|-10----10----10----10----|\9-----9-----9-----9-----| \
Eb|-------------------------|-------------------------|  \
                                                          |x3
eb|-------------------------|-------------------------|  /
Bb|---8-----8-----8-----8---|---5-----5-----5-----5---| /
Gb|-----0-----0-----0-----0-|-----0-----0-----0-----0-|
Db|-------------------------|-------------------------|
Ab|\7-----7-----7-----7-----|\3-----3-----3-----3----/|
Eb|-------------------------|-------------------------|

			(Guitar 2)
eb|-------------------------|-------------------------|
Bb|-------------------------|-------------------------|
Gb|-------------------------|-------------------------|
Db|/5-----5-5---5-----5-5---|-4-----4-4---4-----4-4---|
Ab|/5-----5-5---5-----5-5---|-4-----4-4---4-----4-4---| \
Eb|/3-----3-3---3-----3-3---|-2-----2-2---2-----2-2---|  \
                                                          |x3
eb|-------------------------|-------------------------|  /
Bb|-------------------------|-------------------------| /
Gb|-------------------------|-5----(5-5---5-----5-5)--|
Db|-2-----2-2---2-----2-2---|-5----(5-5---5-----5-5)--| (strum on first)
Ab|-2-----2-2---2-----2-2---|-3----(3-3---3-----3-3)--| (2 times only)
Eb|-0-----0-0---0-----0-0---|-0----(0-0---0-----0-0)--|


Verse:			(Guitar 1)
eb|-------------------------|-------------------------|
Bb|---5-----5-----7-----7---|---8-----8-----8-----8---|
Gb|-----0-----0-----0-----0-|-----0-----0-----0-----0-|
Db|-------------------------|-------------------------| x4
Ab|-3-----3----/5-----5-----|/7-----7-----7-----7----\|
Eb|-------------------------|-------------------------|

			(Guitar 2)
eb|-------------------------|-------------------------|
Bb|----<12>--------<12>-----|----<5>---------<12>-----|
Gb|------<12>---------------|------<5>---------<12>---|
Db|------------------<7>----|-------------------------|
Ab|-------------------------|--------<7>---------<7>--|
Eb|-------------------------|-------------------------|

eb|-------------------------|-------------------------|
Bb|----<12>--------<12>-----|----<5>-------------<12>-|
Gb|------<12>---------------|------<5>-------<12>-----|
Db|------------------<7>----|-------------------------|
Ab|-------------------------|--------<7>--------------|
Eb|-------------------------|-------------------------|

eb|<12>---------------------|-------------------------|
Bb|----<12>--------<12>-----|----<5>---------<12>-----|
Gb|------<12>--------<7>----|------<5>---------<12>---|
Db|-------------------------|-------------------------|
Ab|-------------------------|--------<7>---------<7>--|
Eb|-------------------------|-------------------------|

eb|-------------------------|-------------------------|
Bb|----<12>--------<12>-----|----<5>-------------<12>-|
Gb|------<12>---------------|------<5>-------<12>-----|
Db|------------------<7>----|-------------------------|
Ab|-------------------------|--------<7>--------------|
Eb|-------------------------|-------------------------|
[ Tab from: http://www.guitartabs.cc/tabs/s/staind/14_shades_of_grey_tab.html ]
Chorus:			(Guitar 1)
eb|-------------------------|-------------------------|
Bb|---12----12----12----12--|---10----10----10----10--|
Gb|-----0-----0-----0-----0-|-----0-----0-----0-----0-|
Db|-------------------------|-------------------------|
Ab|-10----10----10----10----|\9-----9-----9-----9-----| \
Eb|-------------------------|-------------------------|  \
                                                          |x3
eb|-------------------------|-------------------------|  /
Bb|---8-----8-----8-----8---|---5-----5-----5-----5---| /
Gb|-----0-----0-----0-----0-|-----0-----0-----0-----0-|
Db|-------------------------|-------------------------|
Ab|\7-----7-----7-----7-----|\3-----3-----3-----3----/|
Eb|-------------------------|-------------------------|


Bridge:			(Guitar 1)
eb|-------------------------|-------------------------|
Bb|---12----12----12----12--|---10----10----10----10--|
Gb|-----0-----0-----0-----0-|-----0-----0-----0-----0-|
Db|-------------------------|-------------------------|
Ab|-10----10----10----10----|\9-----9-----9-----9-----| \
Eb|-------------------------|-------------------------|  \
                                                          x2
eb|-------------------------|-------------------------|  /
Bb|---8-----8-----8-----8---|---5-----5-----5-----5---| /
Gb|-----0-----0-----0-----0-|-----0-----0-----0-----0-|
Db|-------------------------|-------------------------|
Ab|\7-----7-----7-----7-----|\3-----3-----3-----3----/|
Eb|-------------------------|-------------------------|


Ending:  (Guitar 1)
eb|-------------------------|
Bb|-------------------------|
Gb|-(0)---------------------|
Db|-------------------------|
Ab|/10----------------------|
Eb|-------------------------|

-----------------
 07 - Fill Me Up
-----------------

Tuning: Bb Gb Db Ab Db Ab

(Guitar 1) - Distorted
(Guitar 2) - Slighty Dirty Electric
(Guitar 3) - Distorted (w/ phase shifting effect and e-Bow)
(Guitar 4) - Distorted (Rhythm)
(Guitar 5) - Distorted (Lead)
(Guitar 6) - Piano Arranged For Guitar

Intro: (x4)		   (Guitar 1)
Bb|-----------------------------------------------------------|
Gb|-----------------------------------------------------------|
Db|-----------------------------------------------------------|
Ab|-----------------------------------------------------------|
Db|--7/9-9-9--9\7-x-xx--5--5-5-5---5/7-7/9-9--xx-xx--7--7-7---|
Ab|--5/7-7-7--7\5-x-xx--3--3-3-3---3/5-5/7-7--xx-xx--5--5-5---|


Verse: (x9)	     (Guitar 2)
Bb|-------------------------------------------------|
Gb|-------------------------------------------------|
Db|--7h9---9-----7h9---9-----7h9---9-----5h7----7---|
Ab|--7---7-------7---7-------7---7-------5----5-----|
Db|-------------------------------------------------|
Ab|-------------------------------------------------|
  |						    |
  |		     (Guitar 3)			    |
Bb|--12--------(12)--------(12)--------(12)---------|
Gb|---x---------(x)---------(x)---------(x)---------|
Db|---9---------(9)---------(9)---------(9)---------|
Ab|-------------------------------------------------|
Db|-------------------------------------------------|
Ab|-------------------------------------------------|


   Chorus: (x2)	     (Guitar 4)
Bb|-----------------------------------------------|
Gb|-----------------------------------------------|
Db|--10----------2----------0---------------------|
Ab|--10----------2----------0---------(3)---------|
Db|--10----------2----------0----------5----------|
Ab|------------------------------------3----------|
  |						  |
  |		     (Guitar 5)			  |
Bb|--10---8---7--8---7---5--3---------(3)-----5---|
Gb|---x---x---x--x---x---x--x---------(x)-----x---|
Db|---7---5---4--5---4---2--0---------(0)-----2---|
Ab|-----------------------------------------------|
Db|-----------------------------------------------|
Ab|-----------------------------------------------|

Interlude: (x2)		   (Guitar 1)
Bb|-----------------------------------------------------------|
Gb|-----------------------------------------------------------|
Db|-----------------------------------------------------------|
Ab|-----------------------------------------------------------|
Db|--7/9-9-9--9\7-x-xx--5--5-5-5---5/7-7/9-9--xx-xx--7--7-7---|
Ab|--5/7-7-7--7\5-x-xx--3--3-3-3---3/5-5/7-7--xx-xx--5--5-5---|

Verse: (x9)	     (Guitar 2)
Bb|-------------------------------------------------|
Gb|-------------------------------------------------|
Db|--7h9---9-----7h9---9-----7h9---9-----5h7----7---|
Ab|--7---7-------7---7-------7---7-------5----5-----|
Db|-------------------------------------------------|
Ab|-------------------------------------------------|
  |						    |
  |		     (Guitar 3)			    |
Bb|--12--------(12)--------(12)--------(12)---------|
Gb|---x---------(x)---------(x)---------(x)---------|
Db|---9---------(9)---------(9)---------(9)---------|
Ab|-------------------------------------------------|
Db|-------------------------------------------------|
Ab|-------------------------------------------------|
  |						    |
  |		     (Guitar 6)			    |
Bb|----------10----12--------12-10------------------|
Gb|--11-9-12-------11--------------12----11---------|
Db|-----------------9--------------------12---------|
Ab|--------------------------------------12---------|
Db|-------------------------------------------------|
Ab|-------------------------------------------------|

   Chorus: (x2)	     (Guitar 4)
Bb|-----------------------------------------------|
Gb|-----------------------------------------------|
Db|--10----------2----------0---------------------|
Ab|--10----------2----------0---------(3)---------|
Db|--10----------2----------0----------5----------|
Ab|------------------------------------3----------|
  |						  |
  |		     (Guitar 5)			  |
Bb|--10---8---7--8---7---5--3---------(3)-----5---|
Gb|---x---x---x--x---x---x--x---------(x)-----x---|
Db|---7---5---4--5---4---2--0---------(0)-----2---|
Ab|-----------------------------------------------|
Db|-----------------------------------------------|
Ab|-----------------------------------------------|

Interlude: (x2)		   (Guitar 1)
Bb|-----------------------------------------------------------|
Gb|-----------------------------------------------------------|
Db|-----------------------------------------------------------|
Ab|-----------------------------------------------------------|
Db|--7/9-9-9--9\7-x-xx--5--5-5-5---5/7-7/9-9--xx-xx--7--7-7---|
Ab|--5/7-7-7--7\5-x-xx--3--3-3-3---3/5-5/7-7--xx-xx--5--5-5---|

Verse: (x9)	     (Guitar 2)
Bb|-------------------------------------------------|
Gb|-------------------------------------------------|
Db|--7h9---9-----7h9---9-----7h9---9-----5h7----7---|
Ab|--7---7-------7---7-------7---7-------5----5-----|
Db|-------------------------------------------------|
Ab|-------------------------------------------------|
  |						    |
  |		     (Guitar 3)			    |
Bb|--12--------(12)--------(12)--------(12)---------|
Gb|---x---------(x)---------(x)---------(x)---------|
Db|---9---------(9)---------(9)---------(9)---------|
Ab|-------------------------------------------------|
Db|-------------------------------------------------|
Ab|-------------------------------------------------|
  |						    |
  |		     (Guitar 6)			    |
Bb|----------10----12--------12-10------------------|
Gb|--11-9-12-------11--------------12----11---------|
Db|-----------------9--------------------12---------|
Ab|--------------------------------------12---------|
Db|-------------------------------------------------|
Ab|-------------------------------------------------|

   Chorus: (x4)	     (Guitar 4)
Bb|-----------------------------------------------|
Gb|-----------------------------------------------|
Db|--10----------2----------0---------------------|
Ab|--10----------2----------0---------(3)---------|
Db|--10----------2----------0----------5----------|
Ab|------------------------------------3----------|
  |						  |
  |		     (Guitar 5)			  |
Bb|--10---8---7--8---7---5--3---------(3)-----5---|
Gb|---x---x---x--x---x---x--x---------(x)-----x---|
Db|---7---5---4--5---4---2--0---------(0)-----2---|
Ab|-----------------------------------------------|
Db|-----------------------------------------------|
Ab|-----------------------------------------------|

Outro:   		   (Guitar 1)
Bb|-----------------------------------------------------------|
Gb|-----------------------------------------------------------|
Db|-----------------------------------------------------------|
Ab|-----------------------------------------------------------|
Db|--7/9-9-9--9\7-x-xx--5--5-5-5---5/7-7/9-9--xx-xx--7--7-7---|
Ab|--5/7-7-7--7\5-x-xx--3--3-3-3---3/5-5/7-7--xx-xx--5--5-5---|

------------
 08 - Layne
------------

Tuning: Bb Gb Db Ab Db Ab

Intro:
Bb|------------------------------------------|-------------------------------------|
Gb|------------------------------------------|-------------------------------------|
Db|---14\13-13-13-13/14-14-14-11-11-11-11-11-|-14\13-13-13-13/14-14-14-9-9-9-9-9---|
Ab|---0-----0--0--0-----0--0--0--0--0--0--0--|-------------------------0-0-0-0-0---| x2
Db|------------------------------------------|-------------------------------------|
Ab|------------------------------------------|-------------------------------------|
                                                                              
Verse:
Bb|------------------------------------------|-------------------------------------|
Gb|------------------------------------------|-------------------------------------|
Db|---14\13-13-13-13/14-14-14-11-11-11-11-11-|-14\13-13-13-13/14-14-14-9-9-9-9-9---|
Ab|---0-----0--0--0-----0--0--0--0--0--0--0--|-------------------------0-0-0-0-0---| x4
Db|------------------------------------------|-------------------------------------|
Ab|------------------------------------------|-------------------------------------|

Prechorus:
Bb|--------------------------------------------------------------------------------|
Gb|--------------------------------------------------------------------------------|
Db|-------7-----7---------5-------5------7-----7---------5--------7----------------|
Ab|-----7---7-----7-----5---5---5------7---7-----7-----5---5---5/-7----------------|
Db|---7-------7-----7-5-------5------7-------7-----7-5-------5----7----------------|
Ab|--------------------------------------------------------------------------------|

Chorus:	(x4)			(Guitar 2)
Bb|---14-14\----10-10----------------17-17-----------------------------------------|
Gb|--------------------------------------------------------------------------------|
Db|---11-11\----7--7-----------------14-14-----------------------------------------|
Ab|--------------------------------------------------------------------------------|
Db|--------------------------------------------------------------------------------|
Ab|--------------------------------------------------------------------------------|
  |                                                                                |
  |				(Guitar 1)                                         |
Bb|--------------------------------------------------------------------------------|
Gb|--------------------------------------------------------------------------------|
Db|----------------------5-5-5-x---------------------------------------------------|
Ab|---12-12-12-----------5-5-5-x---------------------------------------------------|
Db|---14-14-14--14-14\---5-5-5-x-7-----7-------------------------------------------|
Ab|---12-12-12--12-12\-----------5-----5-------------------------------------------|

Verse:
Bb|------------------------------------------|-------------------------------------|
Gb|------------------------------------------|-------------------------------------|
Db|---14\13-13-13-13/14-14-14-11-11-11-11-11-|-14\13-13-13-13/14-14-14-9-9-9-9-9---|
Ab|---0-----0--0--0-----0--0--0--0--0--0--0--|-------------------------0-0-0-0-0---| x4
Db|------------------------------------------|-------------------------------------|
Ab|------------------------------------------|-------------------------------------|

Prechorus:
Bb|--------------------------------------------------------------------------------|
Gb|--------------------------------------------------------------------------------|
Db|-------7-----7---------5-------5------7-----7---------5--------7----------------|
Ab|-----7---7-----7-----5---5---5------7---7-----7-----5---5---5/-7----------------|
Db|---7-------7-----7-5-------5------7-------7-----7-5-------5----7----------------|
Ab|--------------------------------------------------------------------------------|

Chorus:	(x4)			(Guitar 2)
Bb|---14-14\----10-10----------------17-17-----------------------------------------|
Gb|--------------------------------------------------------------------------------|
Db|---11-11\----7--7-----------------14-14-----------------------------------------|
Ab|--------------------------------------------------------------------------------|
Db|--------------------------------------------------------------------------------|
Ab|--------------------------------------------------------------------------------|
  |                                                                                |
  |				(Guitar 1)                                         |
Bb|--------------------------------------------------------------------------------|
Gb|--------------------------------------------------------------------------------|
Db|----------------------5-5-5-x---------------------------------------------------|
Ab|---12-12-12-----------5-5-5-x---------------------------------------------------|
Db|---14-14-14--14-14\---5-5-5-x-7-----7-------------------------------------------|
Ab|---12-12-12--12-12\-----------5-----5-------------------------------------------|

Bridge:	(x4)			(Guitar 2)
Bb|--------------------------------------------------------------------------------|
Gb|---5-5-5-5-----12\7-7-7-7-7------9--7--5--7---9----7--5--7----------------------|
Db|--------------------------------------------------------------------------------|
Ab|---3-3-3-3-----10\5-5-5-5-5------7--5--3--5---7----5--3--5----------------------|
Db|--------------------------------------------------------------------------------|
Ab|--------------------------------------------------------------------------------|
                                                                              
				(Guitar 1)
Bb|--------------------------------------------------------------------------------|
Gb|--------------------------------------------------------------------------------|
Db|-------------------------12-12-12-12--14-14-14----------------------------------|
Ab|-------------------------10-10-10-10--12-12-12----------------------------------|
Db|---10---10-10--12--12-12-10-10-10-10--12-12-12--12--12-12--12-------------------|
Ab|---8----8--8---10--10-10-10-10-10-10--12-12-12--10--10-10--10-------------------|

Interlude:
Bb|--------------------------------------------------------------------------------|
Gb|--------------------------------------------7-----------------------------------|
Db|-----7-----7-----9--7------10-10-9------5-5-5-----------------------------------|
Ab|-------7-----7--------7----7--7--7------5-5-------------------------------------|
Db|---7-----7-----7--------7-------------5--------0--------------------------------|
Ab|--------------------------------------------------------------------------------|

Chorus:	(x4)			(Guitar 2)
Bb|---14-14\----10-10----------------17-17-----------------------------------------|
Gb|--------------------------------------------------------------------------------|
Db|---11-11\----7--7-----------------14-14-----------------------------------------|
Ab|--------------------------------------------------------------------------------|
Db|--------------------------------------------------------------------------------|
Ab|--------------------------------------------------------------------------------|
  |                                                                                |
  |				(Guitar 1)                                         |
Bb|--------------------------------------------------------------------------------|
Gb|--------------------------------------------------------------------------------|
Db|----------------------5-5-5-x---------------------------------------------------|
Ab|---12-12-12-----------5-5-5-x---------------------------------------------------|
Db|---14-14-14--14-14\---5-5-5-x-7-----7-------------------------------------------|
Ab|---12-12-12--12-12\-----------5-----5-------------------------------------------|

Outro:
Bb|--------------------------------------------------------------------------------|
Gb|--------------------------------------------7-----------------------------------|
Db|-----7-----7-----9--7------10-10-9------5-5-5-----------------------------------|
Ab|-------7-----7--------7----7--7--7------5-5-------------------------------------|
Db|---7-----7-----7--------7-------------5--------0--------------------------------|
Ab|--------------------------------------------------------------------------------|

-------------------
 09 - Falling Down
-------------------

Tuning: Bb Gb Db Ab Db Ab

(Guitar 1) - Slighty Distorted
(Guitar 2) - Distorted
(Guitar 3) - Distorted (Lead)
(Guitar 4) - Clean w/Phase Shifting Effect


Intro:					(Guitar 1)
Bb|---------------------------------------------|-----------------------------------|
Gb|------------------------7------4------4------|-------------------------7------9--|
Db|--5-----5------5-5-5-5--5--(5)-5--(5)-5-(5)--|-11-----11--11-11-11-11-12-----14--|
Ab|--5-----5------5-5-5-5--5--(5)-5--(5)-5-(5)--|--9------9---9--9--9--9--9--(9)-9--|
Db|--5-----5------5-5-5-5--5--(5)-5--(5)-5-(5)--|--9------9---9--9--9--9--9--(9)-9--|
Ab|---------------------------------------------|-----------------------------------|


Verse:		     (Guitar 2)
Bb|-------------------------------(0)----(0)-----|
Gb|-------------------------7------4------4------|
Db|--5------5------5-5-5-5--5--(5)-5--(5)-5-(5)--|
Ab|--5------5------5-5-5-5--5--(5)-5--(5)-5-(5)--|
Db|--5------5------5-5-5-5--5--(5)-5--(5)-5-(5)--|
Ab|----------------------------------------------|

Bb|----------------------------------------------|
Gb|----------------------------------------------|
Db|-11-----11--11-11-11-11-12-----14-----14------|
Ab|--9------9---9--9--9--9--9--(9)-9--(9)-9-(9)--|
Db|--9------9---9--9--9--9--9--(9)-9--(9)-9-(9)--|
Ab|----------------------------------------------|


Verses:				(Guitar 2)
Bb|-----------------------------------------------------------------|
Gb|-----------------------------------------------------------------|
Db|--2--------------------------------------------------------------|
Ab|--2-------------------(3)------------------(0)-------------------|
Db|--2--------------------5--------------------2--------------------|
Ab|-----------------------3--------------------0--------------------|
  |                                                                 |
  |				(Guitar 3)			    |
Bb|--7--------------------5-----------------------------------------|
Gb|--x----------7---------x----------4---------2--------------------|
Db|--4----------x---------2----------x---------x--------------------|
Ab|-------------5--------------------2---------0--------------------|
Db|-----------------------------------------------------------------|
Ab|-----------------------------------------------------------------|

   Bridge 1:			(Guitar 4)
Bb|-----------------------------------------------------------------|
Gb|---------4---------------4-------------9-------------------------|
Db|-----------5---------------5-------------10----------7-----------|
Ab|----2---------------2-------------7-------------5------5---------|
Db|--2---2-----------2---2---------7---7---------5---5--------------|
Ab|-----------------------------------------------------------------|

   Bridge 2:			     (Guitar 2)
Bb|------------------------------------------------------------------------------|
Gb|--------------4p0----------------4p0----------------4p0----------------4p0----|
Db|--2--xxx-2--------0--2--xxx-2--------0--5--xxx-5--------0--5--xxx-5--------0--|
Ab|--2--xxx-2-----------2--xxx-2-----------5--xxx-5-----------5--xxx-5-----------|
Db|--2--xxx-2-----------2--xxx-2-----------5--xxx-5-----------5--xxx-5-----------|
Ab|------------------------------------------------------------------------------|

--------------
 10 - Reality
--------------

Tuning: Bb Gb Db Ab Db Ab

(Guitar 1) - Slighty Dirty Electric
(Guitar 2) - Distorted (w/phase shifting effect and e-Bow)
(Guitar 3) - Distorted (Rhythm)
(Guitar 4) - Distorted (Lead)

Intro:					(Guitar 1)
Bb|------------------------------------------------------------------------------------------|
Gb|----------------------------------------------------------------------------(crescendo)---|
Db|-----4-----5---4--4/5-5----------4------4--4h5p4--------5---4--------0--------------------|
Ab|--2-(2)-2-(2)-----2---2--------0---0----5--5--(5)--5----5--(5)--5----0------0-0-0-0-0-0---|
Db|--2-(2)-2-(2)-----2---2------0----------5--5--(5)--5----5--(5)-(5)---0------0-0-0-0-0-0---|
Ab|------------------------------------------------------------------------------------------|
    PM    PM                   PM...  PM......                                 PM..........

Verse:					(Guitar 1)
Bb|------------------------------------------------------------------------------------------|
Gb|------------------------------------------------------------------------------------------|
Db|-----4-----5---4--4/5-5----------4------4--4h5p4--------5---4--------0-----(0)-----(0_----|
Ab|--2-(2)-2-(2)-----2---2--------0---0----5--5--(5)--5----5--(5)--5----0-----(0)-----(0)----|
Db|--2-(2)-2-(2)-----2---2------0----------5--5--(5)--5----5--(5)-(5)---0-----(0)-----(0)----|
Ab|------------------------------------------------------------------------------------------|
  | PM    PM                   PM...  PM......                          PM.................  |
  |											     |
  |					(Guitar 2)					     |
Bb|--8------------------------------------15---------------------------10--------------------|
Gb|--x-(let ring)--------------------------x-(let ring)-----------------x-(let ring)---------|
Db|--5------------------------------------12----------------------------7--------------------|
Ab|------------------------------------------------------------------------------------------|
Db|------------------------------------------------------------------------------------------|
Ab|------------------------------------------------------------------------------------------|


Chorus:					(Guitar 3)
Bb|------------------------------------------------------------------------------------------|
Gb|--5---------------------------------------------------------------------------------------|
Db|--5--------------------5------------------------------------------------------------------|
Ab|--3--------------------5-------------------(3)------------------(2)-----------------------|
Db|-----------------------5--------------------5--------------------4------------------------|
Ab|--------------------------------------------3--------------------2------------------------|
  |											     |
  |					(Guitar 4)					     |
Bb|--------x----7--8-----------x----3--5-------8----7----5----3-----7--------8---------7-----|
Gb|--------x----x--x-----------x----x--x-------x----x----x----x-----x--------x---------x-----|
Db|--------x----4--5-----------x----0--2-------5----4----2----0-----4--------5---------4-----|
Ab|------------------------------------------------------------------------------------------|
Db|------------------------------------------------------------------------------------------|
Ab|------------------------------------------------------------------------------------------|


Bridge:					(Guitar 3)
Bb|------------------------------------------------------------------------------------------|
Gb|-----------------------5------------------------------------------------------------------|
Db|--2--------------------5--------------------7--------------------9------------------------|
Ab|--2--------------------3--------------------7--------------------9------------------------|
Db|--2-----------------------------------------7--------------------9------------------------|
Ab|------------------------------------------------------------------------------------------|
  |											     |
  |					(Guitar 4)					     |
Bb|-------8----5-----------------3----5------------------------------------------------------|
Gb|-------x----x-----------------x----x---------------5----4-----------------4----5----------|
Db|-------5----2-----------------0----2---------------x----x-----------------x----x----------|
Ab|---------------------------------------------------3----2-----------------2----3----------|
Db|------------------------------------------------------------------------------------------|
Ab|------------------------------------------------------------------------------------------|

--------------
 11 - Tonight
--------------

Tuning: Bb Gb Db Ab Db Ab

(Guitar 1) - Distorted (Rhythm)
(Guitar 2) - Clean
(Guitar 3) - Distorted (Lead)

Intro:				(Guitar 1)
Bb|-----(0)------(0)---(0)-----------(0)--------(0)------(0)----(0)--------|
Gb|-----(0)------(0)-----(0)---------(0)--------(0)------(0)------(0)------|
Db|-2---------5------10------10\7-----------2---------5------10------10/12-|
Ab|-2---------5------10------10\7-----------2---------5------10------10/12-|
Db|-2---------5------10------10\7-----------2---------5------10------10/12-|
Ab|------------------------------------------------------------------------|

Bb|-----(0)------(0)---(0)-----------(0)--------(0)------(0)-----|
Gb|-----(0)------(0)-----(0)---------(0)--------(0)------(0)---7-|
Db|-2---------5------10------10\7-----------2---------5--------7-|
Ab|-2---------5------10------10\7-----------2---------5--------5-|
Db|-2---------5------10------10\7-----------2---------5--------0-|
Ab|--------------------------------------------------------------|

Verses:		     (Guitar 2)
Bb|-----------------------------------<7>-<5>-<7>--|
Gb|--------4-----------------5---------------------|
Db|----------4-5p4---------5------0----------------|
Ab|--2-------------2----3---------0----------------|
Db|--2----------------------------0----------------|
Ab|------------------------------------------------|

Bb|-----------------------------------<7>-<9>-<5>--|
Gb|--------4-----------------5---------------------|
Db|----------4-5p4---------5------0----------------|
Ab|--2-------------2----3---------0----------------|
Db|--2----------------------------0----------------|
Ab|------------------------------------------------|


Bb|-----------------------------------<7>-<5>-<7>--|
Gb|--------4-----------------5---------------------|
Db|----------4-5p4---------5------0----------------|
Ab|--2-------------2----3---------0----------------|
Db|--2----------------------------0----------------|
Ab|------------------------------------------------|

Bb|-------------------------3----------------------|
Gb|--------4----------------2----------------------|
Db|----------4-5p4----------0----------------------|
Ab|--2-------------2--------0----------------------|
Db|--2----------------------0----------------------|
Ab|------------------------------------------------|

Chorus:			(Guitar 1)
Bb|------------------------------------------------------------|
Gb|------------------------------------------------------------|
Db|--10-------7----------------------0-------------------------|
Ab|--10-------7------(2)-------------0-------------------------|
Db|--10-------7-------4--------------0-------------------------|
Ab|-------------------2----------------------------------------|
  |                                                            |
  |			(Guitar 3)			       |
Bb|--5--8---3---5--(5)------------------------5---3-3----5--3--|
Gb|--x--x---x---x--(x)--4---------4----7------x---x-x----x--x--|
Db|--2--5---0---2--(2)--x---------x----x------2---0-0----2--0--|
Ab|------------------2------------2----5-----------------------|
Db|------------------------------------------------------------|
Ab|------------------------------------------------------------|

Bridge:		(Guitar 2)
Bb|-----0--------------0--------0----------|
Gb|-------0--------------0--------0--------|
Db|--9---------12----------5---------5-5\2-|
Ab|--7---------10----------3---------3-3\0-|
Db|----------------------------------------|
Ab|----------------------------------------|

Bb|-----------0-------------0---------0-------------|
Gb|-------------0-------------0---------0-----------|
Db|-2-----9---------12----------5---------5-5/7--7--|
Ab|-0-----7---------10----------3---------3-3/5--5--|
Db|-------------------------------------------------|
Ab|-------------------------------------------------|


Bb|-----0-----------0--------0-------------------0-----------0-----|
Gb|-------0-----------0--------0-------------------0-----------0-7-|
Db|--9---------12-------5---------5-5\2--2----9--------12--------7-|
Ab|--7---------10-------3---------3-3\0--0----7--------10--------5-|
Db|----------------------------------------------------------------|
Ab|----------------------------------------------------------------|

------------------
 12 - Could It Be
------------------

Tuning: Bb Gb Db Ab Db Ab

Intro:
|---------------------------------------------------|
|---------------------------------------------------|
|-------------------------12----12-12-12--12--------|
|--12-12-12-12--12--12----x-----x--x--x---x---------|
|--10-10-10-10--10--10----10----10-10-10--10--------|
|--0--0--0--0---0---0-----0-----0--0--0---0---------|

|------------------------------------------|
|------------------------------------------|
|--12-12-12-12-12-12--7-7--7--7--7--7------|
|--9--9--9--9--9--9---5-5--5--5--5--5------|
|--7--7--7--7--7--7---5-5--5--5--5--5------|
|--0--0--0--0--0--0---0-0--0--0--0--0------|

Verse:
|---------------------------------------|
|---------------------------------------|
|---------11------------12--------------|
|----7-------7------9------9------------|
|--7---7-------7--9---9------9----------|
|---------------------------------------|

Chorus:
|---------------------------------------------------|
|---------------------------------------------------|
|-------------------------12----12-12-12--12--------|
|--12-12-12-12--12--12----x-----x--x--x---x---------|
|--10-10-10-10--10--10----10----10-10-10--10--------|
|--0--0--0--0---0---0-----0-----0--0--0---0---------|

|------------------------------------------|
|------------------------------------------|
|--12-12-12-12-12-12--7-7--7--7--7--7------|
|--9--9--9--9--9--9---5-5--5--5--5--5------|
|--7--7--7--7--7--7---5-5--5--5--5--5------|
|--0--0--0--0--0--0---0-0--0--0--0--0------|
|
|
|------------------------------------------------|
|------------------------------------------------|
|------------------------------------------------|
|------------------------------------------------|
|-7-7-9-11-15-14-14-15-17-19-11-11-11-9-7-7-9-11-|
|------------------------------------------------|

Verse:
|---------------------------------------|
|---------------------------------------|
|---------11------------12--------------|
|----7-------7------9------9------------|
|--7---7-------7--9---9------9----------|
|---------------------------------------|

Chorus:
|---------------------------------------------------|
|---------------------------------------------------|
|-------------------------12----12-12-12--12--------|
|--12-12-12-12--12--12----x-----x--x--x---x---------|
|--10-10-10-10--10--10----10----10-10-10--10--------|
|--0--0--0--0---0---0-----0-----0--0--0---0---------|

|------------------------------------------|
|------------------------------------------|
|--12-12-12-12-12-12--7-7--7--7--7--7------|
|--9--9--9--9--9--9---5-5--5--5--5--5------|
|--7--7--7--7--7--7---5-5--5--5--5--5------|
|--0--0--0--0--0--0---0-0--0--0--0--0------|
|
|
|------------------------------------------------|
|------------------------------------------------|
|------------------------------------------------|
|------------------------------------------------|
|-7-7-9-11-15-14-14-15-17-19-11-11-11-9-7-7-9-11-|
|------------------------------------------------|

Bridge:
|-----------------------------------------|
|-----------------------------------------|
|-----------------------------------------|
|-12-12-12-12-12-12-12-9-9-9-9-9-9-9-9----|
|-10-10-10-10-10-10-10-7-7-7-7-7-7-7-7----|
|-10-10-10-10-10-10-10-7-7-7-7-7-7-7-7----|

|-----------------------------------------|
|-----------------------------------------|
|-----------------------------------------|
|-12-12-12-12-12-12-12-9-9-9-9-9-7-7-7----|
|-10-10-10-10-10-10-10-7-7-7-7-7-5-5-5----|
|-10-10-10-10-10-10-10-7-7-7-7-7-5-5-5----|

----------------
 13 - Blow Away
----------------

Tuning: Db Ab Fb Cb Gb Cb

Intro:
Db|----------------------------------|
Ab|---------------------7------------|
Fb|---------5h------------7-6-4------|
Cb|---------------5h------------444--|
Gb|------5h----5h--------------------|
Cb|----------------------------------|

verse: (clean)
Db|----------------------------------|
Ab|-----7----------------------------|
Fb|-------7-6-4----------------------|
Cb|-------------444------------------|
Gb|----------------------------------|
Cb|----------------------------------|

Chorus: (dist.)
Db|----------------------------------|
Ab|----------------------------------|
Fb|----4-----------------------------|
Cb|----4--0--2-----------------------|
Gb|----2--0--0-----------------------|
Cb|-------0--x-----------------------|

------------
 14 - Intro
------------

Tuning: standard

Intro:
e|-------------------------------------------------|
B|-------------------------------------------------|
G|----8p6---8p6-11-10-8-6---8p6----8p6-11-10-8-6-9-|
D|--6---------------------6------------------------|
A|-------------------------------------------------|
E|-------------------------------------------------|

e|-------------------------------------------------|
B|--10---10---12p10---10---10---10-9-10---12p10----|
G|-----9----9-------9----9----9---------9-------9--|
D|-------------------------------------------------|
A|-------------------------------------------------|
E|-------------------------------------------------|

Verse: (x2)
e|-------------------------------------------------|
B|-------------------------------------------------|
G|----8p6---8p6-11-10-8-6---8p6----8p6-11-10-8-6-9-|
D|--6---------------------6------------------------|
A|-------------------------------------------------|
E|-------------------------------------------------|

e|-------------------------------------------------|
B|--10---10---12p10---10---10---10-9-10---12p10----|
G|-----9----9-------9----9----9---------9-------9--|
D|-------------------------------------------------|
A|-------------------------------------------------|
E|-------------------------------------------------|

Chorus: (x2)
e|--------------------------------------|
B|--------------------------------------|
G|--------------------------------------|
D|--6-6-6-6-6-6-6-6--0-0-0-0-0-0-0-0----|
A|--4-4-4-4-4-4-4-4--0-0-0-0-0-0-0-0----|
E|--4-4-4-4-4-4-4-4--0-0-0-0-0-0-0-0----|

Interlude:
e|-------------------------------------------------|
B|-------------------------------------------------|
G|----8p6---8p6-11-10-8-6---8p6----8p6-11-10-8-6-9-|
D|--6---------------------6------------------------|
A|-------------------------------------------------|
E|-------------------------------------------------|

e|-------------------------------------------------|
B|--10---10---12p10---10---10---10-9-10---12p10----|
G|-----9----9-------9----9----9---------9-------9--|
D|-------------------------------------------------|
A|-------------------------------------------------|
E|-------------------------------------------------|

Verse: (x2)
e|-------------------------------------------------|
B|-------------------------------------------------|
G|----8p6---8p6-11-10-8-6---8p6----8p6-11-10-8-6-9-|
D|--6---------------------6------------------------|
A|-------------------------------------------------|
E|-------------------------------------------------|

e|-------------------------------------------------|
B|--10---10---12p10---10---10---10-9-10---12p10----|
G|-----9----9-------9----9----9---------9-------9--|
D|-------------------------------------------------|
A|-------------------------------------------------|
E|-------------------------------------------------|

Chorus: (x2)
e|--------------------------------------|
B|--------------------------------------|
G|--------------------------------------|
D|--6-6-6-6-6-6-6-6--0-0-0-0-0-0-0-0----|
A|--4-4-4-4-4-4-4-4--0-0-0-0-0-0-0-0----|
E|--4-4-4-4-4-4-4-4--0-0-0-0-0-0-0-0----|

Outro:
e|-------------------------------------------------|
B|-------------------------------------------------|
G|----8p6---8p6-11-10-8-6---8p6----8p6-11-10-8-6-9-|
D|--6---------------------6------------------------|
A|-------------------------------------------------|
E|-------------------------------------------------|

e|-------------------------------------------------|
B|--10---10---12p10---10---10---10-9-10---12p10----|
G|-----9----9-------9----9----9---------9-------9--|
D|-------------------------------------------------|
A|-------------------------------------------------|
E|-------------------------------------------------|
Comments