Stage Dolls - Sorry Is All I Can Say Chords & Tabs

 

Sorry Is All I Can Say Chords & Tabs

Stage Dolls Chords & Tabs

Version: 1 Type: Tab 0 ratings
1 star 2 stars 3 stars 4 stars 5 stars
comments

Sorry Is All I Can Say Tab

   
SORRY (IS ALL I CAN SAY) - STAGE DOLLS 


INTRO: 

E|---------------------------0--| 
B|-------------------------0----| 
G|---------0-----0-------0------| 
D|-------2---0-4---4-0-2--------| 
A|--2--3------------------------| 
E|------------------------------|play 2x 


C D EM 
yeah it cuts deep inside when it`s over 
C D EM 
and the look in your face tells it all 
C D EM 
you were always the one that was waiting 
C D EM 
now I`m stuck with my back to the wall 

F G AM 
yeah I promissed you gold-rings and roses 
F G AM 
handed to you in devil`s disguise 
F G AM 
you thought you were holding an angel 
DM C G 
now the truth lies in front of your eyes 

[ Tab from: http://www.guitartabs.cc/tabs/s/stage_dolls/sorry_is_all_i_can_say_tab.html ]
CHORUS: 
C G F 
so would you run if I told you I love you 
C G F G 
would you run if I asked you to stay 
C G F 
would you cry if I said that I missed you 
DM C G 
sorry is all I can say 


INTRO...... 

C D EM 
girl, I`ve done you no good as a lover 
C D EM 
still haunted by old memories 
C D EM 
and if the road that I take leads me nowhere 
C D EM 
then maybe that`s where I wanna be 

F G AM 
well I promissed you gold-rings and roses 
F G AM 
gave to you all but my heart 
F G AM 
I`ve looked in the eyes of an angel 
DM C G 
and now I don`t know where to start 


CHORUS X 2: 
C G F 
so would you run if I told you I love you 
C G F G 
would you run if I asked you to stay 
C G F 
would you cry if I said that I missed you 
DM C G 
sorry is all I can say 


OUTRO: 


E|-------------------------------0-2-3--| 
B|-----------------------------0--------| 
G|---------0-----0---------0-2----------| 
D|-------2---0-4---4-0-2-4--------------| 
A|--2--3--------------------------------| 
E|--------------------------------------|
Comments