Stabilo Boss - Paperbou Chords & Tabs

 

Paperbou Chords & Tabs

Stabilo Boss Chords & Tabs

Version: 1 Type: Tab 0 ratings
1 star 2 stars 3 stars 4 stars 5 stars
comments

Paperbou Tab

This song has a tablature and a chord guitar. On the album it`s the tab that is played, 
if you want to use 2 guitars it sounds really cool with both. Here it is


Verse: 1 and 2 guitar

(1)
E|--------5--------------12---------5------------12-------|
B|--------5--------------12---------5------------12-------|
G|-------(0)-----------12----------(0)----------12--------|
D|--------------------------------------------------------| x2/3 (it changes
A|-----------0h3-----------------------0h3----------------|   you`ll listen)
E|---5-5----------0------------5-5----------0-------------|
[ Tab from: http://www.guitartabs.cc/tabs/s/stabilo_boss/paperbou_tab.html ]
and somethimes, often after 2 or 3 times of part (1)
(2)
E|--------5--------------12---------------------------5---|
B|--------5--------------12---------------------------5---|
G|-------(0)-----------12----------------------------(0)--|
D|--------------------------------------------------------|
A|-----------0h3----------------3-3------5-5--------------|
E|---5-5----------0-----------1--------3---------5-5------|


and then the second guitar:


E|----------------------------0-------------------|
B|-----------1----------------0-------------------|  x2/3( it changes)
G|-----------2----------------0-------------------|
D|----------2-------------------------------------|
A|----0-0---------0h3-----------------------------|
E|----------------------0-0-----------------------|


Chours : Both guitars


E|---5-(3)(1)--x---(1)-5--(3)(1)--x---------------------|
B|---5-(3)(1)--0---(1)-5--(3)(1)--0---------------------|
G|---5---4---2---1----2--x---4---2---1---------------------|
D|---7---5---3---2----3--x---5---3---2---------------------|
A|---7---5---3---2----3--x---5---3---2---------------------|
E|---5---3---1---0----1--5---3---1---0---------------------|


it is not a 100% correct, but it gives a clue
Enjoy A:J
Comments