Stabilo Boss - Flawed Design Chords & Tabs

 

Flawed Design Chords & Tabs

Stabilo Boss Chords & Tabs

Version: 2 Type: Tab

Flawed Design Tab

   
New song by Stabilo, the underrated band of the century. First single off
their new album, and it's an awesome song.



verses
|------------------|------------------|------------------|--------3-2-0-|
|------------------|------------------|------------------|------1-------|
|----2-4---2-4---2-|--0-0-2-4-0-2-4-0-|----2-4---2-4---2-|--2-4---------|
|--2-----2-----2---|------------------|--4-----4-----4---|--------------|
|------------------|------------------|------------------|--------------|
|------------------|------------------|------------------|--------------|

bridge
[ Tab from: http://www.guitartabs.cc/tabs/s/stabilo_boss/flawed_design_tab_ver_2.html ]
|------------------|------------------|------------------|--------3---------|
|------------------|------------------|------------------|------1---1-------|
|----2-4---2-4---2-|--0-0-2-4-0-2-4-0-|----2-4---2-4---2-|--2-4-------4p2p0-|
|--2-----2-----2---|------------------|--4-----4-----4---|------------------|
|------------------|------------------|------------------|------------------|
|------------------|------------------|------------------|------------------|

    Em
And I will turn off,
     G
and I will shut down
  D                         Am
burying the voices  of my conscience hitting ground...

those chords are combined with the tabs


chorus

Em
cause i lie
		G
not because i want to
	        D	
but i seem to need to
	Am
all the time...

continue chorus with same chords


post chorus-

     C
and how can you say those things
        Am
why cant you just believe?
      C
and how can you say those things
           Am
and keep a straight face?



It's not perfect, but I think it sounds exceptionally better than the other
tabs for this song. -Chase