Stabilo Boss - Everybody Chords & Tabs

 

Everybody Chords & Tabs

Stabilo Boss Chords & Tabs

Version: 6 Type: Tab 0 ratings
1 star 2 stars 3 stars 4 stars 5 stars
comments

Everybody Tab

   
This is my very first time tabbing a song. So please give me some feed back.
I have been playing 7 months and I wanted to try this out.I know there is no
one with the solo tabed and on a site so I included that too it is off in very
few places I will try to update this if I figure it out any better.
Any Questions/Concerns 
j_staniowski@hotmail.com

e-|---------------------------------------------------------|
B-|-------0h1-------------------3-----------------------0h1-|
G-|---------------------2-------4--4h5p4--2p0-------0h2-----|
D-|------------2--------3----------------------0h2----------|
A-|-0--0-------0--3--3-----5-5------------------------------|
E-|---------------1--1-----3-3------------------------------|

e-|-----------------------------3--------------------|
B-|-------0h1-------------------3-------0--1--3p0----|
G-|--------------------2----------------0--2-------0-|
D-|------------2-------3--------------3--------------|
A-|-0--0-------0--3-3-----5--5-----------------------|
E-|---------------1-1-----3--3-----5-----------------|

e-|----------------------------------------------------------|
B-|-------0h1-------------------3------------------------0h1-|
G-|---------------------2-------4--4h5p4--2p0-------0h2------|
D-|------------2--------3----------------------0h2-----------|
A-|-0--0-------0--3--3-----5-5-------------------------------|
E-|---------------1--1-----3-3-------------------------------|

e-|---------------------------------3-----------|
B-|-------0h1--------------------------0h1p0----|
G-|---------------------2--------4------------0-|
D-|------------2--------3-----5-----------------|
A-|-0--0-------0--3--3--------------------------|
E-|---------------1--1-----3--------------------|

e-|----------------------------------------------------------|
B-|-------0h1-------------------3------------------------0h1-|
G-|---------------------2-------4--4h5p4--2p0-------0h2------|
D-|------------2--------3----------------------0h2-----------|
A-|-0--0-------0--3--3-----5-5-------------------------------|
E-|---------------1--1-----3-3-------------------------------|

e-|-----------------------------3--------------------|
B-|-------0h1-------------------3-------0--1--3p0----|
G-|--------------------2----------------0--2-------0-|
D-|------------2-------3--------------3--------------|
A-|-0--0-------0--3-3-----5--5-----------------------|
E-|---------------1-1-----3--3-----5-----------------|

e-|----------------------------------------------------------|
B-|-------0h1-------------------3------------------------0h1-|
G-|---------------------2-------4--4h5p4--2p0-------0h2------|
D-|------------2--------3----------------------0h2-----------|
A-|-0--0-------0--3--3-----5-5-------------------------------|
E-|---------------1--1-----3-3-------------------------------|

e-|------------------------3-3--3-3-|
B-|-------0h1--------------3-3--3-3-|
G-|---------------------2--4-4--4-4-|
D-|------------2--------3--5-5--5-5-|
A-|-0--0-------0--3--3-----5-5--5-5-|
E-|---------------1--1-----3-3--3-3-|

~~~~~~~~~~~~~~~~~~~~~~~~~~~~~~~~~~~~~~~~~~~~~~~~~~~~~~~~~~~~~~~~~~~~~~~~~~~~~
Strum through these three chords a few times
   Am   F     G 
e-|--0----1----3---| 
B-|--1----1----3---| 
G-|--2----2----4---| 
D-|--2----3----5---| 
A-|--0----3----5---| 
E-|--x----1----3---| 
~~~~~~~~~~~~~~~~~~~~~~~~~~~~~~~~~~~~~~~~~~~~~~~~~~~~~~~~~~~~~~~~~~~~~~~~~~~~~

e-|---------------------------------------------------------|
B-|-------0h1-------------------3-----------------------0h1-|
G-|---------------------2-------4--4h5p4--2p0-------0h2-----|
D-|------------2--------3----------------------0h2----------|
A-|-0--0-------0--3--3-----5-5------------------------------|
E-|---------------1--1-----3-3------------------------------|

e-|-----------------------------3--------------------|
B-|-------0h1-------------------3-------0--1--3p0----|
G-|--------------------2----------------0--2-------0-|
D-|------------2-------3--------------3--------------|
A-|-0--0-------0--3-3-----5--5-----------------------|
E-|---------------1-1-----3--3-----5-----------------|

e-|----------------------------------------------------------|
B-|-------0h1-------------------3------------------------0h1-|
G-|---------------------2-------4--4h5p4--2p0-------0h2------|
D-|------------2--------3----------------------0h2-----------|
A-|-0--0-------0--3--3-----5-5-------------------------------|
E-|---------------1--1-----3-3-------------------------------|

e-|---------------------------------3-----------|
B-|-------0h1--------------------------0h1p0----|
G-|---------------------2--------4------------0-|
D-|------------2--------3-----5-----------------|
A-|-0--0-------0--3--3--------------------------|
E-|---------------1--1-----3--------------------|

e-|----------------------------------------------------------|
B-|-------0h1-------------------3------------------------0h1-|
G-|---------------------2-------4--4h5p4--2p0-------0h2------|
D-|------------2--------3----------------------0h2-----------|
A-|-0--0-------0--3--3-----5-5-------------------------------|
E-|---------------1--1-----3-3-------------------------------|

e-|-----------------------------3--------------------|
B-|-------0h1-------------------3-------0--1--3p0----|
G-|--------------------2----------------0--2-------0-|
D-|------------2-------3--------------3--------------|
A-|-0--0-------0--3-3-----5--5-----------------------|
E-|---------------1-1-----3--3-----5-----------------|
[ Tab from: http://www.guitartabs.cc/tabs/s/stabilo_boss/everybody_tab_ver_6.html ]
e-|----------------------------------------------------------|
B-|-------0h1-------------------3------------------------0h1-|
G-|---------------------2-------4--4h5p4--2p0-------0h2------|
D-|------------2--------3----------------------0h2-----------|
A-|-0--0-------0--3--3-----5-5-------------------------------|
E-|---------------1--1-----3-3-------------------------------|

e-|------------------------3-3--3-3-|
B-|-------0h1--------------3-3--3-3-|
G-|---------------------2--4-4--4-4-|
D-|------------2--------3--5-5--5-5-|
A-|-0--0-------0--3--3-----5-5--5-5-|
E-|---------------1--1-----3-3--3-3-|
~~~~~~~~~~~~~~~~~~~~~~~~~~~~~~~~~~~~~~~~~~~~~~~~~~~~~~~~~~~~~~~~~~~~~~~~~~~~~
Strum through these three chords a few times
   Am   F     G 
e-|--0----1----3---| 
B-|--1----1----3---| 
G-|--2----2----4---| 
D-|--2----3----5---| 
A-|--0----3----5---| 
E-|--x----1----3---|

~~~~~~~~~~~~~~~~~~~~~~~~~~~~~~~~~~~~~~~~~~~~~~~~~~~~~~~~~~~~~~~~~~~~~~~~~~~~~
Solo:
e|----------------------------------------|
B|-12b--12-10-8-10-8-10-10-8--------------|
G|----------------------------5--7v--5--7-|
D|----------------------------------------|
A|----------------------------------------|
E|----------------------------------------|

e|-----------------------------------------|
B|---------------------12b-10------10-10---|
G|-9--5--7------5--------------12----------|
D|----------5-7---7-5----------------------|
A|-----------------------------------------|
E|-----------------------------------------|

e|------------------------------------|
B|------------------------------------|
G|-14-17-17b-14-17-19b-12h14h15-15b---|
D|------------------------------------|
A|------------------------------------|
E|------------------------------------|

e|-------------------------------------------------------------|
B|-------------------------------------------------------------|
G|-14p13------------------10-------------------7--11-14-17-19--|
D|--------16p14--------------------7h8h9-9--9------------------|
A|---------------11-9-9b------7-9------------------------------|
E|-------------------------------------------------------------|

e|-------------------------------------------------------------|
B|-------------------------------------------------------------|
G|-14p13------------------10-------------------7---------------|
D|--------16p14--------------------7h8h9-9--9-----10/14-14\7---|
A|---------------11-9-9b------7-9------------------------------|
E|-------------------------------------------------------------|	
End Solo
~~~~~~~~~~~~~~~~~~~~~~~~~~~~~~~~~~~~~~~~~~~~~~~~~~~~~~~~~~~~~~~~~~~~~~~~~~~~~
Strum through these three chords a few times
   Am   F     G 
e-|--0----1----3---| 
B-|--1----1----3---| 
G-|--2----2----4---| 
D-|--2----3----5---| 
A-|--0----3----5---| 
E-|--x----1----3---| 
~~~~~~~~~~~~~~~~~~~~~~~~~~~~~~~~~~~~~~~~~~~~~~~~~~~~~~~~~~~~~~~~~~~~~~~~~~~~~

e-|---------------------------------------------------------|
B-|-------0h1-------------------3-----------------------0h1-|
G-|---------------------2-------4--4h5p4--2p0-------0h2-----|
D-|------------2--------3----------------------0h2----------|
A-|-0--0-------0--3--3-----5-5------------------------------|
E-|---------------1--1-----3-3------------------------------|

e-|-----------------------------3--------------------|
B-|-------0h1-------------------3-------0--1--3p0----|
G-|--------------------2----------------0--2-------0-|
D-|------------2-------3--------------3--------------|
A-|-0--0-------0--3-3-----5--5-----------------------|
E-|---------------1-1-----3--3-----5-----------------|

e-|----------------------------------------------------------|
B-|-------0h1-------------------3------------------------0h1-|
G-|---------------------2-------4--4h5p4--2p0-------0h2------|
D-|------------2--------3----------------------0h2-----------|
A-|-0--0-------0--3--3-----5-5-------------------------------|
E-|---------------1--1-----3-3-------------------------------|

e-|---------------------------------3-----------|
B-|-------0h1--------------------------0h1p0----|
G-|---------------------2--------4------------0-|
D-|------------2--------3-----5-----------------|
A-|-0--0-------0--3--3--------------------------|
E-|---------------1--1-----3--------------------|

e-|----------------------------------------------------------|
B-|-------0h1-------------------3------------------------0h1-|
G-|---------------------2-------4--4h5p4--2p0-------0h2------|
D-|------------2--------3----------------------0h2-----------|
A-|-0--0-------0--3--3-----5-5-------------------------------|
E-|---------------1--1-----3-3-------------------------------|

e-|-----------------------------3--------------------|
B-|-------0h1-------------------3-------0--1--3p0----|
G-|--------------------2----------------0--2-------0-|
D-|------------2-------3--------------3--------------|
A-|-0--0-------0--3-3-----5--5-----------------------|
E-|---------------1-1-----3--3-----5-----------------|

e-|----------------------------------------------------------|
B-|-------0h1-------------------3------------------------0h1-|
G-|---------------------2-------4--4h5p4--2p0-------0h2------|
D-|------------2--------3----------------------0h2-----------|
A-|-0--0-------0--3--3-----5-5-------------------------------|
E-|---------------1--1-----3-3-------------------------------|

e-|------------------------3-|
B-|-------0h1--------------3-|
G-|---------------------2--4-|
D-|------------2--------3--5-|
A-|-0--0-------0--3--3-----5-|
E-|---------------1--1-----3-|
Comments