Stabilo Boss - Everybody Chords & Tabs

 

Everybody Chords & Tabs

Stabilo Boss Chords & Tabs

Version: 5 Type: Tab 0 ratings
1 star 2 stars 3 stars 4 stars 5 stars
comments

Everybody Tab

Stabilo Boss - Everybody         Tabbed by Pat Moore

e]------------------------------------------------------------
b]-------0h1p0--------1--------3--------------------------0p1-
g]-------------0------2--------4---4h5p4---2p0-------0p2------
d]--------------------3--------5----------------0p2-----------
a]--0-0-----------3-3----5--5---------------------------------
e]----------------1-1----3--3---------------------------------



[ Tab from: http://www.guitartabs.cc/tabs/s/stabilo_boss/everybody_tab_ver_5.html ]
e]-------------------------3----------------------------------
b]-------0h1p0--------1----3--------0--1--3---0h1p0-----------
g]-------------0------2----4----4---0--2-------------0--------
d]--------------------3----5----5-----------------------------
a]--0-0-----------3-3----5------------------------------------
e]----------------1-1----3----3-------------------------------




Gtr 1
e]------------------1--1--1--1------3--3--3--x--3-------------
b]-----1---1--1-----1--1--1--1------3--3--3--x--3-------------
g]-----2---2--2-----2--2--2--2------4--4--4--x--4-------------
d]-----2---2--2-----3--3--3--3------5--5--5--x--5-------------
a]------------------3--3--3--3------5--5--5--x--5-------------
e]------------------1--1--1--1------3--3--3--x--3-------------




Gtr 2
e]------------------------------------------------------------
b]------------------------------------------------------------
g]------------------------------------------------------------
d]------2-----------3--2--------------------------------------
a]---0-----5--3-----------3--3h5----5--3--5--3--5-5-5-5-------
e]---------------1--------------------------------------------
Comments