Stabilo Boss - Everybody Chords & Tabs

 

Everybody Chords & Tabs

Stabilo Boss Chords & Tabs

Version: 4 Type: Tab 0 ratings
1 star 2 stars 3 stars 4 stars 5 stars
comments

Everybody Tab

Intro

e------------------1-0-----------3-3--------------------------------| 
a---0-0-------------------------------------------------------------|
d------------------------3---0--------------------------0h2---------|
g-------------0----------2---0---------0-----------2p0------0h2-----|
b--------0h2-------------1---0---------3----0h1p0---------------0h1-|
e-------------------------------------------------------------------|

e------------------1-0----------3-3---------------------------------|
a-0-0---------------------------------------------------------------|
d------------------------3--0---------------------------------------|
g------------0-----------2--0---------0----0--2----------0----------|
b------0h2---------------1--0---------3----0--1---3--0--------------|
e-------------------------------------------------------------------|

at the end of the intro right at the drums kick in the guitar does this 
e---------------1-0------------3------------------------------------|
a-0-0---------------------------------------------------------------|
d--------------------3--0-------------------------------------------|
g-----------0--------2--0----------0--------------------0-----------|
b------0h2-----------1--0-------------0--------0h1p0----------------|
e----------------------------------------1--------------------------|

thats it for the intro 

the chorus is this
[ Tab from: http://www.guitartabs.cc/tabs/s/stabilo_boss/everybody_tab_ver_4.html ]
e---0----------1----------3-------------------------------------|
a---0----------3----------5-------------------------------------|
d---2----------3----------5-------------------------------------|
g---2----------2----------4-------------------------------------|
b---1----------x----------x-------------------------------------|
e---0----------x----------x-------------------------------------|

im not going to bother with the solo or the change in intro at the end 


doesn't anybody know how to walk anymore 
doesn't anybody know what a radio is for 
doesn't anybody wear their hair down low 
doesn't anybody know doesn't anybody know 

doesn't anybody hate it when the streetlight turns red 
doesn't anybody want five more minutes in bed 
doesn't anybody doesn't anybody have a letter to send 
doesn't everybody wish they had just one more freind 

everybody wants 
everybody needs 
everybody asks for one more piece 
everybody wants to hear someone say please 
everybody takes 
everybody steals 
everybody cries when something feels 
everybody's looking for the drug that heals 

doesn't anybody want to take another shot at me 
go ahead the gun is loaded and the bullets are for free 
doesn't everybody spray perfume to cover up a smell 
doesn't anybody know where to go to get some help 

everybody wants 
everybody needs 
everybody begs for self esteem 
why don't you get your mind out of the past 
everybody takes 
everybody steals 
everybody's been kicked by other heals
please raise your hand in the air

ohh in the air

why don't you raise your hands up in the air
why don't you raise your raise you raise your hands in the air
why don't raise hands up in the air

cause everybody wants

doesn't anybody know how to walk anymore 
doesn't anybody know what a radio is for
doesn't anybody wear their hair down low
doesn't anybody know doesn't anybody know

cause everybody wants
Comments