Stabbing Westward - Violent Mood Swings Chords & Tabs

 

Violent Mood Swings Chords & Tabs

Stabbing Westward Chords & Tabs

Version: 3 Type: Tab 0 ratings
1 star 2 stars 3 stars 4 stars 5 stars
comments

Violent Mood Swings Tab

   
Violent Mood Swings by Stabbing Westward

Tabbed by Dave Bloom

mizar_alcor@yahoo.com

One of the best from Ungod...

Drop D Tuning...

D
A
D
G
B
e

There is basicaly only two riffs to this song...

The intro...

*Played the second half of the intro...
I am not sure if it is correct, but they are the closest
sounding notes to the record, in my opinion*
---------------------------------|
---------------------------------|
---------*-7-7-7-7-5-5-5-5-*-----|
-0-1-0---------------------------|
-0-1-0---------------------------|
-0-1-0---------------------------|

You will play the intro riff throughout the song...


The Chorus

---------------------------------------------------|
---------------------------------------------------|
---------------------------------------------------|
-2-2-2-2-2-2-2-2-3-0--2-2-2-2-2-2-2-2-2-3-0--------|
-2-2-2-2-2-2-2-2-3-0--2-2-2-2-2-2-2-2-2-3-0--------|
-2-2-2-2-2-2-2-2-3-0--2-2-2-2-2-2-2-2-2-3-0--------|
[ Tab from: http://www.guitartabs.cc/tabs/s/stabbing_westward/violent_mood_swings_tab_ver_3.html ]
---------------------------------------------------|
---------------------------------------------------|
---------------------------------------------------|
-5-5-5-5-5-5-5-5-5-2-3-0-7-7-7-7-7-7-7-7-7---------|
-5-5-5-5-5-5-5-5-5-2-3-0-7-7-7-7-7-7-7-7-7---------|
-5-5-5-5-5-5-5-5-5-2-3-0-7-7-7-7-7-7-7-7-7---------|

There is some feedback...
when you hear it just hold the note you just played...
:o)


   The Words...


  You've left me with nothing left but questions

  You left me here not knowing who I am

  You've left me so much ***ing time to hate you

  You left me with no choice but to die


  Violent mood swings


  Your voice whispers nearly all the time now

  Reminding me just how worthless I am

  Sometimes I just hear you laugh forever

  I want you the *** out of my head


  Violent mood swings


  You're inside my pain inside my sorrow

  I die for one last moment inside you

  I miss you so ***ing bad I am you

  Whose god will ***ing save me now


  Violent mood swings
Comments