Stabbing Westward - So Far Away Chords & Tabs

 

So Far Away Chords & Tabs

Stabbing Westward Chords & Tabs

Version: 1 Type: Bass Tab 0 ratings
1 star 2 stars 3 stars 4 stars 5 stars
comments

So Far Away Bass Tab

Stabbing Westward - So Far Away
Tabbed By: Greg Ramirez
EMail: gutterball438
Tuning: Standard

I watched the band play live for this one so enjoy.
It is near perfect


Intro/verse:
-------------------------------|
-------------------------------|
-0-10-0---5-0-3-0--0-5-0-3-5-0-|
-------------------------------|

Chorus:                                  2x
---------------------------|--------------------------------|
---------------------------|--------------------------------|
-----3-------------5-------|-0-10-0---5-0-3-0---0-5-0-3-5-0-|
-1-1---1-1-1--/3-3---3-3-3-|--------------------------------|

Interlude:
---------------------------------------|
--------5-----7\-------------------5---|
-0----7---0------\---------------7---5-|
-------------------\1---1-1-3-0--------|

Break:
------------------------------------------|
---------------------------5--------------|
--------5------5-7-----5-7---5--3-5-3-2---|
-5--7-8---7--8------8-------------------3-|

second time^
-------------------------------------------|
--------------------------5--7-5-----7-5---|
--------5-----5-7-----5-7--------5-3-----5-|
-5--7-8---7-8------8-----------------------|

Chorus out

That's it.  It's one of the best Sw songs out there.  
If you find anything wrong e-mail me at gutterball438@aol.com
===========


Artist: Stabbing Westward
Song: Happy
Album: Stabbing Westward

Tabbed for bass by Vraptor7

1) INTRO/VERSE :

G|----------------------------------------------------------
D|----------------------------------------------------------
A|-------------------5---3---5-----------3---5---3---5------
E|---5---5---3---3---------------1---1-------------------3--

(X7)

|----------------------------------------------------
|----------------------------------------------------
|----------------------------------------------------
|---5---5---3---3---1---1---1---1/13---13---13---13--

2) CHORUS :

|----------------------------------
|----------------------------------
|---3---3--------------------------
|-----------3---3---5---5---1---1--

(X3)
[ Tab from: http://www.guitartabs.cc/tabs/s/stabbing_westward/so_far_away_btab.html ]
|-------------------------------------------
|-------------------------------------------
|-------------------------------------------
|---5---5---3---3---1---1---1---1---1---3/--

(slide up to the first E5 in the next verse)

3) VERSE


|------------------------------------------------------
|------------------------------------------------------
|-------------------5---3---5-----------5---3---5------
|---5---5---3---3---------------1---1---------------3--

(X5)

|----------------------------------------------------
|----------------------------------------------------
|----------------------------------------------------
|---5---5---3---3---1---1---1---1/13---13---13---13--

4) CHORUS

5) VERSE

|------------------------------------------------------
|------------------------------------------------------
|-------------------5---3---5-----------5---3---5------
|---5---5---3---3---------------1---1---------------3--

(x2)

6) A QUIET BIT

|--------------------------------------------------
|--------------------------------------------------
|-------------------------------3---5---3---5------
|---5---50---3---30---1---1-------------------3--

|--------------------------------------------------
|--------------------------------------------------
|--------------------------------------------------
|---5---5---3---3---1---1---1---1---1---1---1---1--

7) CHORUS

8) VERSE (x4)

9) SOLO

This a hard bit to hear unless you follow the song with the notes
in your head, and play them with the right rhythm. The most
uncertain part of the tab.

|--------------------------------------------------------------
|--------------------------------------------------------------
|-------1---3---5-----------1---3---5---3---5---3---5---5---5--
|---5---------------3---5--------------------------------------

|--------------
|--------------
|---3---5---3--
|--------------

(x4)

And that happens to be it.
All questions, comments, corrections to be forwarded my way
immediately.

Enjoy,

Nabeel Burney
aka Vraptor7
vraptor7@yahoo.com
http://www24.brinkster.com/vraptor/
Comments