Stabbing Westward - Slipping Away Chords & Tabs

 

Slipping Away Chords & Tabs

Stabbing Westward Chords & Tabs

Version: 1 Type: Tab 0 ratings
1 star 2 stars 3 stars 4 stars 5 stars
comments

Slipping Away Tab

   
Slipping Away by Stabbing Westward

tabbed by Dave Bloom

mizar_alcor@yahoo.com


This song revolves around the three notes, E,F, and G.
There are't any other chords in the song besides those three.
The are two chords for each one though...

Standard Tuning

E
A
D
G
B
E


Chords...

| F | G | E | F2| G2 |E2                                  
|---|---|---|---|----|---|
|---|---|---|---|----|---|
|---|---|---|-10|-12-|-9-|
|-3-|-5-|-2-|-10|-10-|-9-|
|-3-|-5-|-x-|-8-|-10-|-7-|
|-1-|-3-|-0-|---|----|(0)|



Intro...  listen for this, this is played at a few 
points in the song, sometimes it rings out on an E and 
sometimes on A G...

-------------------------------------
-------------------------------------
-------------------------------------
-3-3-3-3-5-5-5-5-2-2-2-2-2-2-2-2--(5)
-3-3-3-3-5-5-5-5-x-x-x-x-x-x-x-x--(3)
-1-1-1-1-3-3-3-3-0-0-0-0-0-0-0-0--(3)


This is right after the intro...


---------------
---------------
---------------
----0---0--2---
---0---0-------
0-1---3------0-



At about 4:39 play this

--------------
--------------
-10-12---9----
-10-12---9----
-8--10---7----
--------(0)---

[ Tab from: http://www.guitartabs.cc/tabs/s/stabbing_westward/slipping_away_tab.html ]
At about 5:38 play this with a wah...

-----------
-----------
--9-9-9-9--
--9-9-9-9--
--7-7-7-7--
----0---0--




Lyrics...

  I feel it slipping away

  I feel it slipping away

  I gave it all and no one cared

  I feel it slipping away

  I feel it slipping away

  I caught it slipping away

  I gave it all, but no one cared

  I feel it slipping away

  I feel it slipping 

  I feel it slipping

  I feel it slipping

  I feel it slipping away


  I feel it slipping away

  I feel it slipping away

  No more pain, No more fear

  I feel it slipping away

  I feel it slipping

  I feel it slipping

  I feel it slipping

  I feel it slipping away


  I just can't learn to forget

  Now i'm choking on the memories

  Choking on regret

  I tried, but I just can't find a way

  To untangle all the pieces

  After they've been thrown away

  I feel it slipping

  I feel it slipping

  I feel it slipping

  I feel it slipping away


  I will not suffer this loss

  Of you again and again and again

  I refuse to continue to live

  In this perpetual nightmare

  I decide it ends right here

  I feel it slipping

  I feel it slipping

  I feel it slipping

  I feel it slipping away


  I feel it slipping

  Its slipping

  Everything is slipping away

Comments