Stabbing Westward - I Dont Believe Chords & Tabs

 

I Dont Believe Chords & Tabs

Stabbing Westward Chords & Tabs

Version: 2 Type: Tab 0 ratings
1 star 2 stars 3 stars 4 stars 5 stars
comments

I Dont Believe Tab

#----------------------------------PLEASE NOTE-------------------------#
#This file is the author's own work and represents their interpretation#
#of the song. You may only use this file for private study, scholarship#
#or research.                                                          #
#----------------------------------------------------------------------#

I Don't Believe
by Stabbing Westward

Tabbed by Jake Thiele
jake@krammit.net

Feel free to e-mail me any possible corrections as I'm not sure
that this is 100% correct.

I don't know what tuning these people use, 
so I tabbed it in the tuning I use.

Intro/Verse

D||--------------------------------------
A||--------------------------------------
F||--sl.---------------------------------
C||--4/5--4^-----------------------------
G||--4/5--4^-(bend 1/2 step and release)-
D||--2/3--2^-----------------------------


Chorus

"I don't believe....."
Guitar 1:
D||-------||------------------------------||
A||-------||------------------------------||
F||-------||O----------------------------O||
G||----H--||--------2h4-------------------||
C||---2/3-||O--------------5--5-5-5-2h3--O||
D||-------||--2--2-2----------------------||

Guitar 2:

D||----------------------------------------------------||
A||----------9-9-9-9-9-9-9-10--10-10-10-10-10-10-10----||
F||----------------------------------------------------||
C||----------6-6-6-6-6-6-6-7---7--7--7--7--7--7--7-----||
G||----------------------------------------------------||
D||----------------------------------------------------||


Quiet Part
[ Tab from: http://www.guitartabs.cc/tabs/s/stabbing_westward/i_dont_believe_tab_ver_2.html ]
D||---------------------------------------------------------------------
A||---------------------------------------------------------------------
F||------4-----4---------4-----4---------4-----4---------4-----4--------
C||----2-----2-----2---2-----2-----2---2-----2-----2---2-----2-----2----
G||--2-----2-----2---4-----4-----4---3-----3-----3---4-----4-----4------
D||---------------------------------------------------------------------


D||-------------------------------------------------------------------||
A||-------------------------------------------------------------------||
F||------4-----4---------4-----4---------4-----4---------4-----4------||
C||----2-----2-----2---2-----2-----2---2-----2-----2---2-----2-----2--||
G||--3-----3-----3---4-----4-----4---3-----3-----3---4-----4-----4----||
D||-------------------------------------------------------------------||


After the quiet part (I'm not sure this is right)

"Now I know it was a lie..."
D||-------------------------------------------------------------------||
A||-------------------------------------------------------------------||
F||-4-----------------------------4-----------------------------------||
C||-2-(play this chord 16 times)--2-(16 times)------------------------||
G||-3-----------------------------4-----------------------------------||
D||-------------------------------------------------------------------||

End (play once after last chorus)

D||----------------------------------||
A||----------------------------------||
F||----------------------------------||
C||---4^-----------------------------||
G||---4^-(bend 1/2 step and release)-||
D||---2^-----------------------------||


You can probably figure out the order to play them in and the exact
rhythm on your own seeing as how you probably won't try to play this
unless you've heard the song.


------Jake------
www.krammit.net
Comments